One Piece - Share The World - Tohoshinki Dbsk Text Guitar Tab

Learn the song with the online tablature player
                       One Piece - Share the World

                                                        By  Tohoshinki(DBSK)

e|--0--2--3--2--0----------0--------------0--2--3----0--2--3--2--0--3--7~5-|
B|-----------------3----0------3--1--0-------------------------------------|
G|-------------------------------------------------------------------------|
D|-------------------------------------------------------------------------|
A|-------------------------------------------------------------------------|
E|-------------------------------------------------------------------------|

e|--------------------------------|
B|--------------------------------|
G|--------------------------------|
D|--------------------------------|       X4
A|--0-0-3-6-5-3-0--0-0-0-0-3-0----|
E|--------------------------------|

e|------------------------------------------------------------|
B|------------------------------------------------------------|
G|------------------------------------------------------------|
D|------------------------------------------------------------|
A|--3--3--3---5----3--3--3---5----3--3--3--3--3--3--3--3---5--|
E|------------------------------------------------------------|

e|------------------------------------------------------------|
B|------------------------------------------------------------|
G|------------------------------------------------------------|
D|------------------------------------------------------------|
A|--3--3--3---5----3--3--3---5----3--3--3--3--3--3---5--------|
E|------------------------------------------------------------|

e|------------------------------------------------------------|
B|------------------------------------------------------------|
G|------------------------------------------------------------|
D|------------------------------------------------------------|
A|--3--3--3---5----3--3--3---5----3--3--3--3--3--3--3--3---5--|
E|------------------------------------------------------------|

e|-------------------------------------------------------------------------|
B|-------------------------------------------------------------------------|
G|-------------------------------------------------------------------------|
D|-------------------------------------------------------------------------|
A|--3--3--3---5----12--10--10--10----10--10--10--10--10--10--10--10---12---|
E|-------------------------------------------------------------------------|

e|-------------------------------------------------------------------|
B|-------------------------------------------------------------------|
G|-------------------------------------------------------------------|
D|---------------------------------------------------------12--10----|
A|--3--3--3---5----10--10--10--12----3--3--3--5----12--10------------|
E|-------------------------------------------------------------------|

e|----------------------------------------------------|
B|----------------------------------------------------|
G|----------------------------------------------------|
D|-----------------5--5--5--7-------------------------|
A|--3--3--3---5------------------10--10--10--10--12---|
E|----------------------------------------------------|

e|--0--2--3--2--0----------0--------------3--2--0----------0--0--2--2--2--3|
B|-----------------3----0------3--1--0-------------3----0------------------|
G|-------------------------------------------------------------------------|
D|-------------------------------------------------------------------------|
A|-------------------------------------------------------------------------|
E|-------------------------------------------------------------------------|

e|--3--2--0----------5--3--2--0----0--2--3----0--2--3--2--0--3--7~5--|
B|-----------3----0--------------------------------------------------|
G|-------------------------------------------------------------------|
D|-------------------------------------------------------------------|
A|-------------------------------------------------------------------|
E|-------------------------------------------------------------------|

                       (*)

e|--------------------------------|
B|--------------------------------|
G|--------------------------------|
D|--------------------------------|       X2
A|--0-0-3-6-5-3-0--0-0-0-0-3-0----|
E|--------------------------------|

e|------------------------------------------------------------|
B|------------------------------------------------------------|
G|------------------------------------------------------------|
D|------------------------------------------------------------|
A|--3--3--3---5----3--3--3---5----3--3--3--3--3--3--3--3---5--|
E|------------------------------------------------------------|

e|------------------------------------------------------------|
B|------------------------------------------------------------|
G|------------------------------------------------------------|
D|------------------------------------------------------------|
A|--3--3--3---5----3--3--3---5----3--3--3--3--3--3---5--------|
E|------------------------------------------------------------|

e|------------------------------------------------------------|
B|------------------------------------------------------------|
G|------------------------------------------------------------|
D|------------------------------------------------------------|
A|--3--3--3---5----3--3--3---5----3--3--3--3--3--3--3--3---5--|
E|------------------------------------------------------------|

e|-------------------------------------------------------------------------|
B|-------------------------------------------------------------------------|
G|-------------------------------------------------------------------------|
D|-------------------------------------------------------------------------|
A|--3--3--3---5----12--10--10--10----10--10--10--10--10--10--10--10---12---|
E|-------------------------------------------------------------------------|

e|-------------------------------------------------------------------|
B|-------------------------------------------------------------------|
G|-------------------------------------------------------------------|
D|---------------------------------------------------------12--10----|
A|--3--3--3---5----10--10--10--12----3--3--3--5----12--10------------|
E|-------------------------------------------------------------------|

e|-----------------------------------------------------|
B|-----------------------------------------------------|
G|-----------------------------------------------------|
D|-----------------5--5--5--7--------------------------|
A|--3--3--3---5-------------------10--10--10--10--12---|
E|-----------------------------------------------------|

e|--0--2--3--2--0----------0--------------3--2--0----------0--0--2--2--2--3|
B|-----------------3----0------3--1--0-------------3----0------------------|
G|-------------------------------------------------------------------------|
D|-------------------------------------------------------------------------|
A|-------------------------------------------------------------------------|
E|-------------------------------------------------------------------------|

e|--3--2--0----------5--3--2--0----0--2--3----0--2--3--2--0--3--7~5--|
B|-----------3----0--------------------------------------------------|
G|-------------------------------------------------------------------|
D|-------------------------------------------------------------------|
A|-------------------------------------------------------------------|
E|-------------------------------------------------------------------|

e|--0--2--3--2--0----------0--------------3--2--0----------0--0--2--2--2--3|
B|-----------------3----0------3--1--0-------------3----0------------------|
G|-------------------------------------------------------------------------|
D|-------------------------------------------------------------------------|
A|-------------------------------------------------------------------------|
E|-------------------------------------------------------------------------|

e|--3--2--0----------5--3--2--0----0--2--3----0--2--3--2--0--3--7~5--|
B|-----------3----0--------------------------------------------------|
G|-------------------------------------------------------------------|
D|-------------------------------------------------------------------|
A|-------------------------------------------------------------------|
E|-------------------------------------------------------------------|

e|--------------------------------|
B|--------------------------------|
G|--------------------------------|
D|--------------------------------|       X2
A|--0-0-3-6-5-3-0--0-0-0-0-3-0----|
E|--------------------------------|

End

(*) If the underlined part doesn't sound right an alternative is

e|-----------------|
B|--0--5--3--1--0--|
G|-----------------|
D|-----------------|
A|-----------------|
E|-----------------|

That applies to all 3 times this segment appears. This used to be the original 1 but
replaced it cause the 2nd notes had a little more pinch in it. If u can't decide either u
can try a mixture of playing both at the same time

e|-----5--3--2--0--|
B|--0--5--3--1--0--|
G|-----------------|
D|-----------------|
A|-----------------|
E|-----------------|

(**)edit:changed 3 notes in the riff i think it sounds better and closer to the original now

^^ That is all, i hope u enjoyed

Tab created by termi7