One Too Many - Blastoff Text Guitar Tab

Learn the song with the online tablature player
This IS right. There's no way it can be wrong. Trust me.
Intro
e---------------------------------------------------------------------
b---------------------------------------------------------------------
g---------------------------------------------------------------------
d-----------------------------2---------------------------------------
a----------2--------0----4-------------------2----0-------------------
e--0---3-------------------------------0--3------------3---2----------

e------------------------------------------------------------
b------------------------------------------------------------
g------------------------------------------------------------
d----------------------------2--------(pause)----------------
a-----------2-----0------4-----------------------------------
e--0----3----------------------------------------------------

Plays that for most of song and thats also the bass part. Sometimes its palm muted listen to
the song for reference.

Chorus
number of lines is strumming
Chords E      A      E      D A  E     A        (Pause)
       |  | | |  | | | | |  | |  | | | | | |