Onelinedrawing - Livin Small Text Guitar Tab

Learn the song with the online tablature player
                             LIVIN' SMALL - Onelinedrawing*

e|-----------------------------|
B|-----------------------------|
G|---0------0------0------0----|
D|----0-0----0-0----0-0----0-0-|
A|-----2------2------2------2--|
E|-3------3------3------3------|

e|-----------------------------|
B|-----------------------------|
G|---0------0------0------0----|
D|----0-0----0-0----0-0----0-0-|
A|-----2------2------2------2--|
E|-3------3------3------3------|
  These dreams'll raise you up. Some kids wanna be

e|-----------------------------|
B|---2------2------2------2----|
G|----0-0----0-0----0-0----0-0-|
D|-----2------2------2------2--|
A|-3------3------3------3------|
E|-----------------------------|
  ..rockstars. And some kids wanna be

e|-----------------------------|
B|-----------------------------|
G|---0------0------0------0----|
D|----0-0----0-0----0-0----0-0-|
A|-----2------2------2------2--|
E|-3------3------3------3------|
  ..firemen.

e|-------------------------------------------|
B|---2------2------2------2------2------2----|
G|----0-0----0-0----0-0----0-0----0-0----0-0-|
D|-----2------2------2------2------2------2--|
A|-3------3------0------2------3------3------|
E|-------------------------------------------|
  But those dreams'll mess you up.
  If you're in it, for the bright lights and the battle scars,
  It'll turn you into a

e|-----------------------------|
B|-----------------------------|
G|---0------0------0------0----|
D|----0-0----0-0----0-0----0-0-|
A|-----2------2------2------2--|
E|-3------3------3------3------|
  Liar, man.

e|--------------------------|
B|---2-----2-----2-----2----|
G|----0-0---0-0---0-0---0-0-|
D|-----2-----2-----2-----2--|
A|--0-----2-----3-----3-----|
E|--------------------------|
  I don't know if I've seen a million faces

e|--------------------------|
B|---2-----2-----2-----2----|
G|----0-0---0-0---0-0---0-0-|
D|-----2-----2-----2-----2--|
A|--0-----2-----3-----3-----|
E|--------------------------|
  I'm not sure if I've rocked them all.

e|----------------|
B|----2------2----|
G|-----0-0----0-0-|
D|------2------2--|
A|--0------2------|
E|----------------|
  All I know is that I've

e|-----------------|
B|----2---2---2----|
G|---0---0---0-0-0-|
D|--------------0--|
A|-----------------|
E|-0---2---3-------|
  Met a lot of people

e|-----------------|
B|----2---2---2----|
G|---0---0---0-0-0-|
D|--------------0--|
A|-----------------|
E|-0---2---3-------|
  Filled a lot of spaces

e|----------------------------------------------|
B|----2---2---2---2---2------2------2------2----|
G|---0---0---0---0---0-0-0--0-0-0--0-0-0----0-0-|
D|----------------------2------2------2---2--2--|
A|--------------2---3------3------3------3------|
E|-0---2---3------------------------------------|
  Learned to jump and learn to take a fall.

e|---------------------------------------------|
B|--2---2---2---2----2------2------2------2----|
G|---0---0---0---0--0-0-0--0-0-0--0-0-0--2-0-0-|
D|-------------0-------2------2------2------2--|
A|-----0---2-------3------3------3------3------|
E|-3-------------------------------------------|
  And if that's not livin large,
  Then I'm happy livin small.

e|-----------------------------|
B|---2-------------------------|
G|----0-0---0------0------0----|
D|-----0-----0-0----0-0----0-0-|
A|------------2------2------2--|
E|-3------3------3------3------|

e|---------------------------------------------------------------------------------------|
B|---------------------------------------------------------------------------------------|
G|---0------0------0------0-------0------0------0------0-------0------0------0------0----|
D|----0-0----0-0----0-0----0-0-----0-0----0-0----0-0----0-0-----0-0----0-0----0-0----0-0-|
A|-----2------2------2------2-------2------2------2------2-------2------2------2------2--|
E|-3------3------3------3-------3------3------3------3-------3------3------3------3------|
  Well, most of us, when we go out looking,
  as we do, for our lovers and our friends

e|-----------------------------|
B|---2------2------2------2----|
G|----0-0----0-0----0-0----0-0-|
D|-----2------2------2------2--|
A|-3------3------3------3------|
E|-----------------------------|
  Yea, we know it's not just supposed to
  be about what looks good

e|-----------------------------|
B|-----------------------------|
G|---0------0------0------0----|
D|----0-0----0-0----0-0----0-0-|
A|-----2------2------2------2--|
E|-3------3------3------3------|
  We know it's not really all about the benjamins

e|-------------------------------------------|
B|---2------2------2------2------2------2----|
G|----0-0----0-0----0-0----0-0----0-0----0-0-|
D|-----2------2------2------2------2------2--|
A|-3------3------3------3------3------3------|
E|-------------------------------------------|
  Yea, but business is a lot like love and
  business is a lot like friendship, isn't it?

e|--------------------|
B|---2-----2-----2----|
G|----0-0---0-0---0-0-|
D|-----2-----2-----2--|
A|--0-----2-----3-----|
E|--------------------|
  Yea, well either way, if you just go out
  looking for what's rich and hot

(no guitar)
  You'll end up with a piece of shit

e|-----------------------------|
B|-----------------------------|
G|---0------0------0------0----|
D|----0-0----0-0----0-0----0-0-|
A|-----2------2------2------2--|
E|-3------3------3------3------|

e|--------------------------|
B|---2-----2-----2-----2----|
G|----0-0---0-0---0-0---0-0-|
D|-----2-----2-----2-----2--|
A|--0-----2-----3-----3-----|
E|--------------------------|
  I don't know if I'll make a million dollars

e|--------------------------|
B|---2-----2-----2-----2----|
G|----0-0---0-0---0-0---0-0-|
D|-----2-----2-----2-----2--|
A|--0-----2-----3-----3-----|
E|--------------------------|
  Yea who knows, maybe if I return those calls...

e|----------------|
B|----2------2----|
G|-----0-0----0-0-|
D|------2------2--|
A|--0------2------|
E|----------------|
  All I know is when I

e|-----------------|
B|----2---2---2----|
G|---0---0---0-0-0-|
D|--------------0--|
A|-----------------|
E|-0---2---3-------|
  tune in, turn on and go out

e|-----------------|
B|----2---2---2----|
G|---0---0---0-0-0-|
D|--------------0--|
A|-----------------|
E|-0---2---3-------|
  It's not my radio

e|-----------------|
B|----2---2---2----|
G|---0---0---0-0-0-|
D|--------------0--|
A|-----------------|
E|-0---2---3-------|
  It's not my tv show

e|-----------------|
B|----2---2---2----|
G|---0---0---0-0-0-|
D|--------------0--|
A|-----------------|
E|-0---2---3-------|
  It's not my rock-n-roll

e|-----------------|
B|----2---2---2----|
G|---0---0---0-0-0-|
D|--------------0--|
A|-----------------|
E|-0---2---3-------|
  Looks like one big fashion show

e|-----------------|
B|----2---2---2----|
G|---0---0---0-0-0-|
D|--------------0--|
A|-----------------|
E|-0---2---3-------|
  Sellin' this and sellin' those

e|-----------------|
B|----2---2---2----|
G|---0---0---0-0-0-|
D|--------------0--|
A|-----------------|
E|-0---2---3-------|
  Sodas, cars and phones

e|-----------------|
B|----2---2---2----|
G|---0---0---0-0-0-|
D|--------------0--|
A|-----------------|
E|-0---2---3-------|
  I mean, what's the dilly, yo?

e|----------------------------------------------|
B|----2---2---2---2---2------2------2------2----|
G|---0---0---0---0---0-0-0--0-0-0--0-0-0----0-0-|
D|----------------------2------2------2---2--2--|
A|--------------2---3------3------3------3------|
E|-0---2---3------------------------------------|
  This channel isn't clear at all

e|---------------------------------------------|
B|--2---2---2---2----2------2------2------2----|
G|---0---0---0---0--0-0-0--0-0-0--0-0-0--2-0-0-|
D|-------------0-------2------2------2------2--|
A|-----0---2-------3------3------3------3------|
E|-3-------------------------------------------|
  And if that's what passes these days for livin' large

e|-----------------------------|
B|-----------------------------|
G|---0------0------0------0----|
D|----0-0----0-0----0-0----0-0-|
A|-----2------2------2------2--|
E|-3------3------3------3------|
  Then I'm happy livin' small.

e|-----------------------------|
B|---2------2------2------2----|
G|----0-0----0-0----0-0----0-0-|
D|-----2------2------2------2--|
A|-3------3------3------3------|
E|-----------------------------|
  Then I'm happy livin' small.

e|-----------------------------|
B|-----------------------------|
G|---0------0------0------0----|
D|----0-0----0-0----0-0----0-0-|
A|-----2------2------2------2--|
E|-3------3------3------3------|
  Then I'm happy livin' small.

| /  slide up
| \  slide down
| h  hammer-on
| p  pull-off
| ~  vibrato
| +  harmonic
| x  Mute note