Onerepublic - Made For You Text Guitar Tab

Learn song with the online tabulature player
OneRepublic – Made For You intro

Standard tuning

   B             B7       B+      B  
e|-------7-------5-------3-------2-|
B|---4-------4-------4-------4-----|
G|-4---4---4---4---4---4---4---4---|
D|---------------------------------|
A|-2-------------------------------|
E|---------------------------------|

   G             G7M     G       G7M   
e|-------7---------------3---------|
B|---3-------3---7---3-------3---7-|
G|-4---4---4---4---4---4---4---4---|
D|---------------------------------|
A|---------------------------------|
E|-3-------------------------------|