Onerepublic - Too Easy Text Guitar Tab

Learn the song with the online tablature player
Intro
e|----------------5-----5-----3-----3------------------------|
B|----8-----8-----------------------------5-----5-----4------|
G|---0-0-0-0-0-0-0-0-0-0-0-0-0-0-0-0-0-0-0-0-0-0-0-0-0-0-0---|
D|-----------------------------------------------------------|
A|--7---7-7---7-6---6-6---6-5---5-5---5-4---4-4---4-3---3-3--|
E|-----------------------------------------------------------|

Autumns winds starts again! The days are warm, start to fade!
e|----------------5-----5-----3-----3------------------------|
B|----8-----8-----------------------------5-----5-----4------|
G|---0-0-0-0-0-0-0-0-0-0-0-0-0-0-0-0-0-0-0-0-0-0-0-0-0-0-0---|
D|-----------------------------------------------------------|
A|--7---7-7---7-6---6-6---6-5---5-5---5-4---4-4---4-3---3-3--|
E|-----------------------------------------------------------|

All that's here still the same! Memories fall like rain!
e|----------------5-----5-----3-----3------------------------|
B|----8-----8-----------------------------5-----5-----4------|
G|---0-0-0-0-0-0-0-0-0-0-0-0-0-0-0-0-0-0-0-0-0-0-0-0-0-0-0---|
D|-----------------------------------------------------------|
A|--7---7-7---7-6---6-6---6-5---5-5---5-4---4-4---4-3---3-3--|
E|-----------------------------------------------------------|

The only world I know...
e|-----------------------2-----2------3-----3-----2-----2-----3-----3----|
B|-----0---0----0----0---------------------------------------------------|
G|----0---0----0----0---0-0-0--0-0-0-0-0-0-0-0-0-0-0-0-0-0-0-0-0-0-0-0-0-|
D|-----------------------------------------------------------------------|
A|-----------------2---0---0-0----0-0---0-0---0-0---0-0---0-0---0-0------|
E|--0----2----3----------------------------------------------------------|

Steady as you go...
e|-----------------------2-----2------3-----3---|
B|-----0---0----0----0--------------------------|
G|----0---0----0----0---0-0-0--0-0-0-0-0-0-0----|
D|----------------------------------------------|
A|-----------------2---0---0-0----0-0---0-0-----|
E|--0----2----3---------------------------------|

It's too easy, too easy for you! (2x)
e|----------------5-----5-----3-----3------------------------|
B|----8-----8-----------------------------5-----5-----4------|
G|---0-0-0-0-0-0-0-0-0-0-0-0-0-0-0-0-0-0-0-0-0-0-0-0-0-0-0---|
D|-----------------------------------------------------------|
A|--7---7-7---7-6---6-6---6-5---5-5---5-4---4-4---4-3---3-3--|
E|-----------------------------------------------------------|

e|------2------3------|
B|--------------------|
G|-----0-0----0-0-----|
D|----5----5-5----5---|
A|---0----0-0----0----|
E|--------------------|

e|-----------------------2-----2------3-----3-----2-----2-----3-----3----|
B|-----0---0----0----0---------------------------------------------------|
G|----0---0----0----0---0-0-0--0-0-0-0-0-0-0-0-0-0-0-0-0-0-0-0-0-0-0-0-0-|
D|-----------------------------------------------------------------------|
A|-----------------2---0---0-0----0-0---0-0---0-0---0-0---0-0---0-0------|
E|--0----2----3----------------------------------------------------------|

Sinking in the sand of time! A measurable bind, I'll be fine
e|----------------5-----5-----3-----3------------------------|
B|----8-----8-----------------------------5-----5-----4------|
G|---0-0-0-0-0-0-0-0-0-0-0-0-0-0-0-0-0-0-0-0-0-0-0-0-0-0-0---|
D|-----------------------------------------------------------|
A|--7---7-7---7-6---6-6---6-5---5-5---5-4---4-4---4-3---3-3--|
E|-----------------------------------------------------------|

I'll burn a fire above the air! So Heaven is still on my side!
e|----------------5-----5-----3-----3--------------------------|
B|----8-----8-----------------------------5-----5-----4--------|
G|---0-0-0-0-0-0-0-0-0-0-0-0-0-0-0-0-0-0-0-0-0-0-0-0-0-0-0-----|
D|-------------------------------------------------------------|
A|--7---7-7---7-6---6-6---6-5---5-5---5-4---4-4---4-3---3-3----|
E|-------------------------------------------------------------|

Where is it tonight!
e|-----------------------2-----2------3-----3-----2-----2-----3-----3----|
B|-----0---0----0----0---------------------------------------------------|
G|----0---0----0----0---0-0-0--0-0-0-0-0-0-0-0-0-0-0-0-0-0-0-0-0-0-0-0-0-|
D|-----------------------------------------------------------------------|
A|-----------------2---0---0-0----0-0---0-0---0-0---0-0---0-0---0-0------|
E|--0----2----3----------------------------------------------------------|

No more allibies!
e|-----------------------2-----2------3-----3---|
B|-----0---0----0----0--------------------------|
G|----0---0----0----0---0-0-0--0-0-0-0-0-0-0----|
D|----------------------------------------------|
A|-----------------2---0---0-0----0-0---0-0-----|
E|--0----2----3---------------------------------|

It's too easy, too easy for you! (2x)
e|----------------5-----5-----3-----3------------------------|
B|----8-----8-----------------------------5-----5-----4------|
G|---0-0-0-0-0-0-0-0-0-0-0-0-0-0-0-0-0-0-0-0-0-0-0-0-0-0-0---|
D|-----------------------------------------------------------|
A|--7---7-7---7-6---6-6---6-5---5-5---5-4---4-4---4-3---3-3--|
E|-----------------------------------------------------------|

e|------2------3------|
B|--------------------|
G|-----0-0----0-0-----|
D|----5----5-5----5---|
A|---0----0-0----0----|
E|--------------------|

e|-----------------------2-----2------3-----3-----2-----2-----3-----3----|
B|-----0---0----0----0---------------------------------------------------|
G|----0---0----0----0---0-0-0--0-0-0-0-0-0-0-0-0-0-0-0-0-0-0-0-0-0-0-0-0-|
D|-----------------------------------------------------------------------|
A|-----------------2---0---0-0----0-0---0-0---0-0---0-0---0-0---0-0------|
E|--0----2----3----------------------------------------------------------|

Autumns winds starts again! The days are warm, start to fade!
e|----------------5-----5-----3-----3------------------------|
B|----8-----8-----------------------------5-----5-----4------|
G|---0-0-0-0-0-0-0-0-0-0-0-0-0-0-0-0-0-0-0-0-0-0-0-0-0-0-0---|
D|-----------------------------------------------------------|
A|--7---7-7---7-6---6-6---6-5---5-5---5-4---4-4---4-3---3-3--|
E|-----------------------------------------------------------|