Oniontree - Distorted You Text Guitar Tab

Learn song with the online tabulature player
Intro

E|--------------------------------------------------|
B|--------------------------------------------------|
G|--------------------4--------------6--------------|
D|-----------7--------------5-----------------7-----|
A|--5-----------------------------------------------|
D|-----0--0-----0--0-----0-----0--0-----0--0-----0--|

E|--------------------------------------------------|
B|--------------------------------------------------|
G|--------------------4--------------6--------7-----|
D|--5--------7--------------5-----------------------|
A|--------------------------------------------------|
D|-----5--5-----5--5-----5-----5--5-----5--5-----5--|

E|--------------------------------------------------|
B|--------------------------------------------------|
G|--9--------7--------------------------------------|
D|--------------------11----9--------8--------9-----|
A|--------------------------------------------------|
D|-----9--9-----9--9-----9-----9--9-----9--9-----9--|


E|--------------------------------------------------|
B|--------------------------------------------------|
G|--------------------------------------------------|
D|--7--------7--------7-----5--------5--------5-----|
A|--------------------------------------------------|
D|-----7--7-----7--7-----7-----5--5-----5--5-----5--|


 Credits to Jan Mýrá

www.myspace.com/oniontree
www.facebook.com/oniontree