Only Ones - Curtains For You Text Guitar Tab

Learn the song with the online tablature player
Intro
RIFF A:

 A5              D                 A5              D
|--------------|------------------|--------------|-------------------|
|--------------|------------------|--------------|-------------------|
|--------------|------------------|--------------|-2-----------------|
|----------0h2p|=0----2p0---------|----------0h2-|-4----2p0----------|
|-0--2--3------|----------3p0-----|-0--2--3------|----------3p0------|
|--------------|--------------0h3-|--------------|--------------0h3--|

  A5             D                  A5             D
|--------------|------------------|--------------|------|
|--------------|------------------|--------------|------|
|--------------|------------------|--------------|-2----|
|----------0h2p|=0----2p0---------|----------0h2-|-4----|
|-0--2--3------|----------3p0-----|-0--2--3------|------|
|--------------|--------------0h3-|--------------|------|

  Bb         C
|----------|----------|
|----------|----------|
|-3--------|-5--------|
|-3--------|-5--------|
|-1--------|-3--------|
|----------|----------|

VERSE 1

Dm
There is nothing you could hope to gain

G
By doing this

Dm
To be here in your arms is like...

G                             Dm
Falling off of a precipice ba-by

      G        Dm          G
Going down, oh down, right down

CHORUS

A5
Oh no you just can't win

D
There's no sense in suffering

      A5
As the rocks tumble and the earth slides too

D
This means it's curtains for you

w/ RIFF A

A5

D
This means curtains for you

A5

D
This means curtains for you

Bb                      C          (end Riff A)
    You must have such a tangled mind

VERSE 2
Oh, you blow from hot to cold
You even like to go out every Saturday night
You pale beside the image you hold
The lights dim and the circus role
Oh roll on...

CHORUS
Oh no you just can't win
There's no sense in suffering
As the rocks tumble and the earth slides too
This means it's curtains for you
This means curtains for you
This means curtains for you

You never really understood me

GUITAR SOLO
over verse progression)

w/ RIFF A
A5

D
This means curtains for you

A5

D
This means curtains for you

A5

D
This means curtains for you

A5

D
This means curtains for you

OUTRO SOLO
over A5 - D progression)