Only1noah - Im Sexy And I Know It Text Guitar Tab

Learn song with the online tabulature player
----------------------------------------------------------------------------
        I'm Sexy and i Know it cover - only1noah
----------------------------------------------------------------------------
Tabbed by:Rob Newhook
E-mail:sumyungguy35@gmail.com
only1noah youtube channel:  http://www.youtube.com/user/only1noah?feature=watc

Tuning:standard

The important part is adding percussion with palm slap/muted strumming on the 2nd 
and 4th of every beat.  Also upstroking the Gm7 and Am7 notes to accent the bass line.
Strum the chords full out during chorus for added punch.
Make it your own like he did.

chords you will need

E: 022100
Gm7:353433
Am7:575655  (same structure 2 frets up from G)
Bm7:797877  (same structure 4 frets up from G)

intro (2X)
  E                                Gm7            Am7
e|---------x-------------------x---------3----x---------5----x---------------|
B|---------x-------------------x---------3----x---------5----x---------------|
G|---------x-------------------x---------4----x---------6----x---------------|
D|---------x-------------------x---------3----x---------5----x---------------|
A|---------x-------------------x--------------x--------------x---------------|
E|----0----x----0----3----0----x----3---------x----5---------x----3----------|

Verse (7X)
 E                               Gm7            Am7
e|---------x--------------x---------3----x---------5----x----------------------|
B|---------x--------------x---------3----x---------5----x----------------------|
G|---------x--------------x---------4----x---------6----x----------------------|
D|---------x--------------x---------3----x---------5----x----------------------|
A|---------x--------------x--------------x--------------x----------------------|
E|----0----x----0---------x----3---------x----5---------x----------------------|

When I walk on by, girls be looking like oh he fly
 I pimp to the beat, walking on the street in my new lafreak, yeah
 This is how I roll, animal print skin, out of control,
 It's a RedFoo with the big afro
 And just like Bruce Lee I've got the claw
 Oh, Oh Girl look at that body (x3)

     Bm7
e|----7----|
B|----7----|
G|----8----|
D|----7----|  (8X)   then slide down
A|----9----|
E|----7----|

I, I, I work out

pre-verse
      E
e|---------|
B|---------|
G|----1----|
D|----2----|  (16X)
A|----2----|
E|----0----|

Verse (3X)
 E                               Gm7            Am7
e|---------x--------------x---------3----x---------5----x----------------------|
B|---------x--------------x---------3----x---------5----x----------------------|
G|---------x--------------x---------4----x---------6----x----------------------|
D|---------x--------------x---------3----x---------5----x----------------------|
A|---------x--------------x--------------x--------------x----------------------|
E|----0----x----0---------x----3---------x----5---------x----------------------|

When I walk on the spot, this is what I see
 Everybody stands and they staring at me
 I got passion in my pants and I ain't afraid to

     Bm7
e|----7----|
B|----7----|
G|----8----|
D|----7----|  (8X)   then slide down
A|----9----|
E|----7----|

Show it, show it, show it
oooooooooo
Chorus (4X)
 E                                  Gm7            Am7
e|---------x-------------------x---------3----x---------5----x---------------|
B|---------x-------------------x---------3----x---------5----x---------------|
G|---------x-------------------x---------4----x---------6----x---------------|
D|---------x-------------------x---------3----x---------5----x---------------|
A|---------x-------------------x--------------x--------------x---------------|
E|----0----x----0----3----0----x----3---------x----5---------x----3----------|

I'm sexy and I know it  yeah
I'm sexy and i know it  ooooo
I'm sexy and i know it
I'm sexy and i know it

Verse (7X)
 E                               Gm7            Am7
e|---------x--------------x---------3----x---------5----x----------------------|
B|---------x--------------x---------3----x---------5----x----------------------|
G|---------x--------------x---------4----x---------6----x----------------------|
D|---------x--------------x---------3----x---------5----x----------------------|
A|---------x--------------x--------------x--------------x----------------------|
E|----0----x----0---------x----3---------x----5---------x----------------------|

When I'm at the mall, security just can't fight 'em off
 When I'm at the beach, I'm in a speedo trying to tan my cheeks, yeah
 This is how I roll, come on ladies it's time to go
 We headed to the bar, baby don't be nervous
 No shoes, no shirt, I still get service
 Oh, oh, Girl look at that body (x3)
 
     Bm7
e|----7----|
B|----7----|
G|----8----|
D|----7----|  (8X)   then slide down
A|----9----|
E|----7----|

I, I, I work out

pre-verse
      E
e|---------|
B|---------|
G|----1----|
D|----2----|  (16X)
A|----2----|
E|----0----|

Verse (3X)
 E                               Gm7            Am7
e|---------x--------------x---------3----x---------5----x----------------------|
B|---------x--------------x---------3----x---------5----x----------------------|
G|---------x--------------x---------4----x---------6----x----------------------|
D|---------x--------------x---------3----x---------5----x----------------------|
A|---------x--------------x--------------x--------------x----------------------|
E|----0----x----0---------x----3---------x----5---------x----------------------|

When I walk in the spot, this is what I see
 Everybody stands and they staring at me
 I got passion in my pants and I ain't afraid to

     Bm7
e|----7----|
B|----7----|
G|----8----|
D|----7----|  (8X)   then slide down
A|----9----|
E|----7----|

Show it, show it, show it
yeah

 play Chorus till end
 E                                  Gm7            Am7
e|---------x-------------------x---------3----x---------5----x---------------|
B|---------x-------------------x---------3----x---------5----x---------------|
G|---------x-------------------x---------4----x---------6----x---------------|
D|---------x-------------------x---------3----x---------5----x---------------|
A|---------x-------------------x--------------x--------------x---------------|
E|----0----x----0----3----0----x----3---------x----5---------x----3----------|

I'm sexy and I know it
I'm sexy and i know it  ooooo
I'm sexy and i know it    yeah
I'm sexy and i know it
 so Wiggle, wiggle, wiggle,  yeah (x4)
I'm sexy and i know it
I;m sexy and i know know it ooohh yeah
I'm sexy and i know it
I'm sexy and i know it
I'm sexy and i know it......

----------------------------------------------------------------------------
                                     FIN
----------------------------------------------------------------------------

hope this helps.  Plz note i am not the artist, this is my personnal take on this song.


************************************

| /   slide up
| \   slide down
| h   hammer-on
| p   pull-off
| ~   vibrato
| +   harmonic
| x   Mute note
| b   Bend
| pb  Pre-bend
| br  Bend release
| pbr Pre-bend release
| brb Bend release bend

************************************