Oomph! - Dreh Dich Nicht Um Text Guitar Tab

Learn song with the online tabulature player
Pretty simple yet great song by oomph!, so yeah.

DADGBE
Dropped-D

|------------------|
|------------------|
|------------------|
|5-5--7-7--3-3--2-2|
|5-5--7-7--3-3--2-2|
|5-5--7-7--3-3--2-2|

|----5--------1----|
|------------------|
|5------5-3--------|
|------------------|
|------------------|
|------------------|


|----5-------------|
|------------------|
|5------5-3--3-3---|
|------------------|
|------------------|
|------------------|

|------------------|
|------------------|
|------------------|
|5-----7-----------|
|5-----7-----------|
|3-----5-----------|

|----------------------------------|
|----------------------------------|
|----------------------------------|
|5-7-7-5-7-7-7-5-7-7-7-5-7-7-8-----|
|5-7-7-5-7-7-7-5-7-7-7-5-7-7-8-----|
|5-7-7-5-7-7-7-5-7-7-7-5-7-7-8-----|