Oomph! - The Power Of Love Text Guitar Tab

Learn song with the online tabulature player
INTRO:
e|----------------------------------|
B|----------------------------------|
G|-----5-----5-----5-----7-----3----|
D|---5-----5-----5-----5-----5------|x8
A|-3-----3-----3-----3-----3-----3--|
E|----------------------------------|

PRE-CHORUS
guitar one
e|---------------------------------------------------------------------|
B|---------------------------------------------------------------------|
G|-7----7----12----9~------10----12----9~----10---9~-----10---12----9~-|
D|---------------------------------------------------------------------|
A|---------------------------------------------------------------------|
E|---------------------------------------------------------------------|

guitar two
e|----------------------------------|
B|----------------------------------|
G|-----5-----5-----5-----7-----3----|
D|---5-----5-----5-----5-----5------|x4
A|-3-----3-----3-----3-----3-----3--|
E|----------------------------------|

CHORUS
e|-----------------------------------------------|
B|-----------------------------------------------|
G|--5~-------------------------------------------|
D|--5~----6~----5~---6~----8~----6~----8~----6~--|
A|--3~----6~----5~---6~----8~----6~----8~----6~--|
E|--------4~----3~---4~----6~----4~----6~----4~--|

VERSE:
e|----------------------------------|
B|----------------------------------|
G|-----5-----5-----5-----7-----3----|
D|---5-----5-----5-----5-----5------|x9
A|-3-----3-----3-----3-----3-----3--|
E|----------------------------------|

PRE-CHORUS
guitar one
e|---------------------------------------------------------------------|
B|---------------------------------------------------------------------|
G|-7----7----12----9~------10----12----9~----10---9~-----10---12----9~-|
D|---------------------------------------------------------------------|
A|---------------------------------------------------------------------|
E|---------------------------------------------------------------------|

guitar two
e|----------------------------------|
B|----------------------------------|
G|-----5-----5-----5-----7-----3----|
D|---5-----5-----5-----5-----5------|x4
A|-3-----3-----3-----3-----3-----3--|
E|----------------------------------|

CHORUS
e|-----------------------------------------------|
B|-----------------------------------------------|
G|--5~-------------------------------------------|
D|--5~----6~----5~---6~----8~----6~----8~----6~--|
A|--3~----6~----5~---6~----8~----6~----8~----6~--|
E|--------4~----3~---4~----6~----4~----6~----4~--|

INTERLUDE:
e|----------------------------------|
B|----------------------------------|
G|-----5-----5-----5-----7-----3----|
D|---5-----5-----5-----5-----5------|
A|-3-----3-----3-----3-----3-----3--|
E|----------------------------------|

TACIT

e|----------------------------------|
B|----------------------------------|
G|-----5-----5-----5-----7-----3----|
D|---5-----5-----5-----5-----5------|
A|-3-----3-----3-----3-----3-----3--|x5
E|----------------------------------|

CHORUS
e|-----------------------------------------------|
B|-----------------------------------------------|
G|--5~-------------------------------------------|
D|--5~----6~----5~---6~----8~----6~----8~----6~--|
A|--3~----6~----5~---6~----8~----6~----8~----6~--|x2
E|--------4~----3~---4~----6~----4~----6~----4~--|