Oomph! - Transformation Text Guitar Tab

Learn the song with the online tablature player
e-------------------------------------------------------|
b-------------------------------------------------------|
g-------------------------------------------------------| X 4
d--7--10--12--0--3--5--0--8---7--3---0--3--5--0---------|
a--7--10--12--0--3--5--0--8---7--3---0--3--5--0---------|
d--7--10--12--0--3--5--0--8---7--3---0--3--5--0---------|

Verse
first, that industrial beat, then this:

Riff Two
e--------------------------------------------------------------|
b--------------------------------------------------------------|
g--------------------------------------------------------------| X 2
d--0-0---0-0-0---0-0-0---0-3-3---0-0---0-0-0---0-0-0---0-10-3--|
a--0-0---0-0-0---0-0-0---0-3-3---0-0---0-0-0---0-0-0---0-10-3--|
d--0-0---0-0-0---0-0-0---0-3-3---0-0---0-0-0---0-0-0---0-10-3--|
I let it happen

Riff Three
d--8--7--3--0---3--5--0---|
a--8--7--3--0---3--5--0---| X 4
d--8--7--3--0---3--5--0---|

Riff Four
d--0--7--8----10--12--3--5---|
a--0--7--8----10--12--3--5---| X 4
d--0--7--8----10--12--3--5---|

Riff Five
e------------------------------------|
b------------------------------------|
g------------------------------------| X 2
d--0-0---0-10-12-0---0-0-0---0-3-5---|
a--0-0---0-10-12-0---0-0-0---0-3-5---|
d--0-0---0-10-12-0---0-0-0---0-3-5---|
I’m fucking anxious…

Then Intro Riff X4
Riff Two X2
Riff Three X4
Riff Four X4
Riff Five X2

Riff Six
d--8--8--8--8----3--5--0----|
a--8--8--8--8----3--5--0----| X 2
d--8--8--8--8----3--5--0----|

End
d--0--0----0--10--12--0--0---|
a--0--0----0--10--12--0--0---|
d--0--0----0--10--12--0--0---|