Oomph! - Traumst Du Text Guitar Tab

Learn the song with the online tablature player
OOMPH - Traumst Du?

Here. THIS one is right.

INTRO

Guitar 1:

C#|-17-17-17-17-17-17-17-17-16-16-16-20-20-20-------|
G#|-------------------------------------------18-18-|
E |-------------------------------------------------|
B |-------------------------------------------------| X8
F#|-------------------------------------------------|
B |-------------------------------------------------|

Guitar 2 comes in after the above repeats 4 times:

C#|---------------------------------|
G#|---------------------------------|
E |---------------------------------|
B |-------------------------------3-| X4
F#|-----2-3-------------2-3---------|
B |-0-0-------0-0-3-1-0-------0-0---|

VERSE

C#|---------------------------------|
G#|---------------------------------|
E |---------------------------------|
B |-7-7---4-5----------7---4-5------| X4
F#|-5-5---2-3---3------5---2-3---3/-|
B |-------------3----------------3/-|
(Only do the slide-up from the 3 each 2nd time.)

PRE-CHORUS

C#|------------------------|
G#|------------------------|
E |------------------------|
B |-8~~~--8~~~--7~~~--7~~~-|
F#|-8~~~--------7~~~-------|
B |-8~~~--------7~~~-------|

CHORUS

C#|--------------------------------------------------|
G#|--------------------------------------------------|
E |-22222222-55555555-10101010101010101010101010-999-|
B |-00000000-33333333-8-8-8-8-8-8-8-8-8-8-8-8-8--777-| X2
F#|-00000000-33333333-8-8-8-8-8-8-8-8-8-8-8-8-8--777-|
B |-00000000-33333333-8-8-8-8-8-8-8-8-8-8-8-8-8--777-|

REPEAT INTRO RIFFS TWICE.
REPEAT VERSE.
REST where the pre-chorus is.
REPEAT CHORUS TWICE. (So overall you'll play the pattern four times.)

BRIDGE

Guitar 1:

C#|-------------|
G#|-15-15-15-15-|
E |-------------|
B |-12-12-12-12-| X3
F#|-------------|
B |-------------|

Then rest for a measure or so, and gradually just play.

C#|-------------|
G#|-15-15-15-15-|
E |-------------|
B |-12-12-12-12-|
F#|-------------|
B |-------------|

The chord repeats over the whole bridge.

Guitar 2: Plays the intro (low riff) palm muted then releases
into regular playing.

Guitar 3: This is tremolo picked throughout the heavy part
of the bridge.

C#|-------------------------------------------------------|
G#|-10101010101010101010-9999999999-8888888888-6666666666-|
E |-------------------------------------------------------|
B |-------------------------------------------------------| X2
F#|-------------------------------------------------------|
B |-------------------------------------------------------|

REPEAT PRE-CHORUS.
REPEAT CHORUS 3 TIMES. (Play the pattern 6 times.)

OUTRO
The last 2 times you repeat the chorus pattern, the outro riff
is played over it twice.

C#|-13-13-13-13-13-12-12-12-12-10-10-10-10--------------|
G#|-----------------------------------------13-13-13-13-|
E |-----------------------------------------------------|
B |-----------------------------------------------------|
F#|-----------------------------------------------------|
B |-----------------------------------------------------|

C#|----------------------------------------------|
G#|-11-11-11-11-10-10-10-10----------------------|
E |-------------------------12-12-12-12-15-15-14-|
B |----------------------------------------------|
F#|----------------------------------------------|
B |----------------------------------------------|

Then the Guitar 1 intro riff is played twice.

And that's the song.