Opera Magna - Un Sueno En Un Sueno Text Guitar Tab

Learn the song with the online tablature player
E-----------------------------|------------------------------------|
B--------------10-11----------|--------10-------11----13------15~--|
G------/12~-----------7~------|---/12-----12~----------------------|
D-----------------------------|------------------------------------|
A-----------------------------|------------------------------------|
E-----------------------------|------------------------------------|

E-----------------------------------------------------------------|
B---13---15----17~----18-17---------------------------------------|
G-----------------------------19-----14~--------------------------|
D-----------------------------------------------------------------|
A-----------------------------------------------------------------|
E-----------------------------------------------------------------|

E-----------------------------------------------------------------|
---15----13-------------------------------------------------------|
----------------15-----17~----15------12~-------------------------|
------------------------------------------------------------------|
------------------------------------------------------------------|
E-----------------------------------------------------------------|