Operation Ivy - These Boots Are Made For Walking Text Guitar Tab

Learn song with the online tabulature player
Operation Ivy - These Boots Are Made For Walking

VERSE
 These boots...  walking
--------------------------
--5----------------5------
--5----------------6------
--5----------------7------
--------------------------
--------------------------

CHORUS
 Walk  all  over  you
--------------------------
--7----------3-----5------
--7----------4-----6------
--7----------5-----7------
--------------------------
--------------------------


ORDER
-Verse  (3x)
-Chorus (2x)
-Verse  (3x)
-Chorus (2x)
-Bass Solo
-Chorus (8x)