Opeth - Demon Text Guitar Tab

Learn the song with the online tablature player
Ok, I have seen many people tab Demon of the Fall, but noone gets
the end solo correct. So im settin it straight RIGHT NOW!!!

/=slide up
\=slide down
Gtr.1
|--------------------------------------------------------------------|
|-------------------------------/5-----------------------------------|
|----------------------------------5--7------------------------------|
|--------5/7--5--0-------5--7-------------/5--3-2--------------------|
|---------------------8----------------------------------------------|
|--------------------------------------------------------------------|

Gtr.2
|--------------------------------------------------------------------|
|--------------------------------------------------------------------|
|--------------------------------------------------------------------|
|------7-----7-----10-----10-----5-----5-----5-----5-----------------|
|----5-----5-----8------8------3-----3-----5-----5-------------------|
|--5-----5-----8------8------3-----3-----0-----0---------------------|