Ophthalamia - Time For War Text Guitar Tab

Learn the song with the online tablature player
                         Version 1.1 - MAY '02

.  - palm mute                  /  - slide up to
\  - slide down to              ~  - vibrato
h  - hammer on                  b  - bend
p  - pull off                   Suffixes for bend
ph - pinch harmonic             f - full bend    h - half bend
*  - see comment                r - release      t - tap bend
X  - percussion mute            ~ - vibrato bend
@  - slight palm mute           () - ghost note, sustained note

Tune Gtr to B

                                                 ________ __________

     A
|1.       |2.        |
[---------------------------|------------------|---------|----------]
[---------------------------|------------------|---------|----------]
[*--------------------------|------------------|-----8---|-10---12-*]GTRS
[*-10------13-12-10--8---5--|-10------13-12-10-|-8---8---|-10---12-*]I&II
[--10------13-12-10--8---5--|-10------13-12-10-|-8---6---|-8----10--]
[--8--8888-11-10-8---6---3--|-8--8888-11-10-8--|-6---^---|-^-----^--]
   ^  ....           ^   ^    ^  ....            ^

Riff A [1 Time]

     B
[4 Times]
[----------------------|----------------------]
[----------------------|----------------------]
[*-6/7--6/7--6/7--7/8--|--6/7--6/7--6/7--8---*]GTRS
[*-6/7--6/7--6/7--7/8--|--6/7--6/7--6/7--8---*]I&II
[--4/5--4/5--4/5--5/6--|--4/5--4/5--4/5--6----]
[---sl---sl---sl---sl--|---sl---sl---sl--^----]

     C
[8 Times]
[----------------|------------------]
[----------------|------------------]
[*-12"----12\10"-|-----------------*]GTRS
[*-12"----12\10"-|-12"----12\10"-8-*]I&II
[--10"----10\8"--|-12"----12\10"-8--]
[-----------sl---|-10"----10\8"--6--]
                            sl   ^

     D
--Rhythm--                       [2 Times]
[------------|-----------|-----------|------------]
[------------|-----------|-----------|------------]
[*-13--------|-12--------|-----------|-----------*]GTRS
[*-13--------|-12--------|-13--------|-12--------*]I&II
[--11--------|-10--------|-13--------|-12---------]
[---^--------|--^--------|-11--------|-10---------]
[Hold chords throughout!]   ^           ^

                       ____________  _____________
[Riff D.1] --Lead--   |1-3.        |4.            |
[---------------------|------------|--------------]
[---------------------|------------|--------------]
[*----15-14-15-----15-|-14---------|-/17---15~~~-*]GTR III
[*-/17--------17-15---|---17-15-17-|-sl----------*]
[--sl-----------------|------------|--------------]
[---------------------|------------|--------------]

Riff D [2 Times] + Riff D.1 [1 Time]

     E
--Rhythm--                      [12 Times]
[------------|-----------|-----------|------------]
[------------|-----------|-----------|------------]
[*-10--------|-8---------|-----------|-----------*]GTRS
[*-10--------|-8---------|-11--------|-10--------*]I&II
[--8---------|-6---------|-11--------|-10---------]
[---^--------|-^---------|-9---------|-8----------]
[Hold chords throughout!]  ^           ^

[Riff E.1] --Lead--                       [6 Times]
[------------------------|------------------------]
[------------------------|------------------------]
[*-----------------------|-----------------------*]GTR III
[*-5-7-8----7-5_7_5------|5-7-8----7-5_7_5-------*]
[--------8~----h-p--8-5-8|------8~----h-p--8-5~~--]
[------------------------|------------------------]

Riff A [2 Times]
Riff B [4 Times]
Riff C [8 Times]
Riff D [4 Times]
Riff E [12 Times] + E.1 [6 Times]

     F
[9 Times]
[---------------------------|------------------------------]
[---------------------------|------------------------------]
[*--------------------------|-----------------------------*]GTR I
[*-----------------10-8_10_8|--------------------10-9(10)-*]
[--10-8-8_10-11-10-----h--p-|11~-10-8-8h10-11-10-----tr----]
[--------h------------------|------------------------------]

Riff E [12 Times] + E.1 [6 Times]

[Slower]
[----------]
[----------]
[*--------*]GTRS
[*-5-(5)--*]I&II
[--5-(5)---]
[--3-(3)---]
   ^
 [Hold]

     F
[12 Times]
[----------------|----------------]
[----------------|----------------]
[*-------5--3----|--3------------*]GTRS
[*-5--5--5--3----|--3--7-8-7-----*]I&II
[--5--5--3--1----|--1--7-8-7------]
[--3--3--^--^----|--^--5-6-5------]
   ^  ^                . .

[Ending]
[----------|----------|----]
[----------|----------|----]
[*---------|----------|---*]GTRS
[*-5"------|-(5)------|-5-*]I&II
[--5"------|-(5)------|-5--]
[--3"------|-(3)------|-3--]
                        ^
                      [End]