Opposite Zero - On And Off Text Guitar Tab

Learn song with the online tabulature player
Pm-Palm mute

We are a punk band from New Jersey so check us out!!


------------------
------------------
-4----------------    (Intro & verse)
-4--4--6---4------    Play Each chord
-2--4--6---4------     8x's each
----2--4---2------
Pm................

------------------
------------------
-*8------4--------    (Chorus)
-*8--*8--2--2-----
-*6--*6--2--2-----  
-*6--*6-----4-----
**3 times
*7 times
 

We are a new band that is coming out so tell people about us and we should
have a website up and running soon!!

Tabbed by Chris Zampella, Kurt Seickel


Lyrics..will be shown later on...