Oppressed - Work Together Text Guitar Tab

Learn the song with the online tablature player
verse
chorus
E------------------------||-----------------------|---------------------|
B------------------------||-----------------------|---------------------|
G------------------------||-----------------------|--5--5--5--5--5------|
D---7--7--3--3--5--5--7--||--7--7--3--3--5--5--7--|--5--5--5--5--5------|
A---7--7--3--3--5--5--7--||--7--7--3--3--5--5--7--|--3--3--3--3--3------|
E---0--0--1--1--3--3--5--||--0--0--1--1--3--3--5--|---------------------|

E---------------------||------------------------------------------------|
B---------------------||------------------------------------------------|
G---5--5--5-----------||------------------------------------------------|
D---5--5--5--7--7--7--||------------------------------------------------|
A---3--3--3--7--7--7--||------------------------------------------------|
E------------5--5--5--||------------------------------------------------|