Orange 9mm - Cutting And Draining Text Guitar Tab

Learn the song with the online tablature player
INTRO
w/wah)
E --------------------------------------------------
B --------------------------------------------------
G --4-4-4--4-4--4-4-4--4-4--------------------------
D --------------------------------------------------
A --2-2-2--2-2--2-2-2--2-2--------------------------
E --------------------------------------------------

INTRO 2
E --------------------------------------------------
B --------------------------------------------------
G --------------------------------------------------
D -2--2--2----3--3---2--2--2------------------------
A -2--2--2----3--3---2--2--2------------------------
E -0--0--0----1--1---0--0--0------------------------

RIFF 1                       harmonic
E --------------------------------------------------
B ------------------------x--*4---------------------
G -------------------x-x----------------------------
D -3--3---2--2--2----x-x----------------------------
A -3--3---2--2--2----x-x----------------------------
E -1--1---0--0--0----x-x----------------------------

RIFF 2
E --------------------------------------------------
B --------------------------------------------------
G -9-9-9---9-9-9---9-9-9---101010-------------------
D --------------------------------------------------
A -7-7-7---7-7-7---7-7-7---8-8-8--------------------
E --------------------------------------------------

RIFF 3
E --------------------------------------------------
B --------------------------------------------------
G -7-------------------7---------8-8-8--------------
D -7-9-9-9-9-9-9-9-9-9-7-9-9-9-9-8-8-8--------------
A -5-9-9-9-9-9-9-9-9-9-5-9-9-9-9-6-6-6--------------
E ---7-7-7-7-7-7-7-7-7---7-7-7-7--------------------