Orange 9mm - Guyatone Text Guitar Tab

Learn the song with the online tablature player
INTRO
E --------------------------------------------------
B --------------------------------------------------
G -7---7---7-7--7-7---7---7---7-7--7-7--------------
D --------------------------------------------------
A -5---5---5-5--5-5---5---5---5-5--5-5--------------
E --------------------------------------------------

VERSE
E |---------------------------|-------------------------
B |---------------------------|-------------------------
G |.-------------------------.|-7-----------------------
D |.-2-x-x-5-5---7-7---8-8--8.|-7-7---------------------
A |--2-x-x-5-5---7-7---8-8--8-|-5-7---------------------
E |--0-x-x-3-3-0-5-5-0-6-6--6-|---5---------------------
                             3x

VERSE
w/wah)
E --------------------------------------------------
B --------------------------------------------------
G --9-------------9----------9---------9------------
D ------8-------------8----------8---------8--------
A --------------------------------------------------
E --------------------------------------------------

CHORUS
wah)
E --------------------------------------------------
B --------------------------------------------------
G -7-7-7-7-7-7-7-7-7-7-7-7-7-7\5-5-5-5--------------
D -7-7-7-7-7-7-7-7-7-7-7-7-7-7\5-5-5-5--------------
A -5-5-5-5-5-5-5-5-5-5-5-5-5-5\3-3-3-3--------------
E --------------------------------------------------

BRIDGE
E --------------------------------------------------
B --------------------------------------------------
G --------------------------------------------------
D --------------------------------------------------
A -1-/-/-/-/-/-/-/-/-/-/-/-/-/-/-/------------------
E -1-/-/-/-/-/-/-/-/-/-/-/-/-/-/-/------------------
   ^strum while sliding all the way up the neck