Orange 9mm - Touching Skies Text Guitar Tab

Learn the song with the online tablature player
Verse riff
I use a bit of Wah and a Flanger w/ a wound 20 guage so
sound
might vary)
E:---------------------------------------------------------------
B:---------------------------------------------------------------
G:--5-4-7-5------------------------------------------------------
D:---------------------------------------------------------------
A:---------------------------------------------------------------
D:---------------------------------------------------------------
verse w/fill
E:---------------------------------------------------------------
B:-----------8-7-5--3--------------------------------------------
G:--5--4-7-5-----------------------------------------------------
D:---------------------------------------------------------------
A:---------------------------------------------------------------
D:---------------------------------------------------------------

Chorus
type solo)
E:---------------------------------------------------------------
B:---------------------------------------------------------------
G:---17--16-17--17--16--17--17--16--17-19--21--16----------------
D:-------------------------------------------------17------------
A:---------------------------------------------------------------
D:---------------------------------------------------------------

Anyone who figures out the acoustic part before I do please send it to
me.