Orange And Lemons - Pabango Ng Yong Mata Text Guitar Tab

Learn the song with the online tablature player
Orange and Lemons-Pabango ng yong mata

hello guyz this is a very very nice and deep song intro at adlib lang to ni Clem so I
hope tama and I hope you will like it!

e|-----------------------|-----------------------------|
B|-----5---4---5---2-3---|-----5---4---4---2-3---------|
G|-1\4---4---4---4-----4-|-1\4---4---4---4-----4-------|
D|-----------------------|-----------------------------|
A|-----------------------|-----------------------------|
E|-----------------------|-----------------------------|

e|-------------------5-----3-----2-----1------------|
B|-----5---4---5---2-----2-----2-----2-----2----5---|
G|-1\4---4---4---4-----4-----4-----4-----4----------|
D|--------------------------------------------------|
A|--------------------------------------------------|
E|--------------------------------------------------|