Orange Range - Shanghai Honey Text Guitar Tab

Learn song with the online tabulature player
I've looked everywhere for the tabs for this song, and it doesn't seem they exist
on the web. This isnt really a hard song, so I decided to tab it myself. This is all the parts
the song, most im sure of. To get the timing and stuff just listen to it, it's a pretty 
song.

standard tuning

|-------------------------|
|-------------------------|
|-2---2-5---5-7---7-5-5-5-| repeat a few times...
|-2---2-5---5-7---7-5-5-5-|
|-0---0-3---3-5---5-3-3-3-|
|-------------------------|

|-----------------|
|-----------------|
|---------7---9---| again, repeat a few times...
|-7---5---7---9---|
|-7---5---5---7---|
|-5---3-----------|

|---------------------------------------------------------------------|
|---------------------------------------------------------------------|
|---------------------------------------------------------------------|
|---------------------------------------------------------------------|
|---------------3--------------------------3-----------------<<<5-5-5-|
|-5---3-5---3-5---5-3-3--2-3-5---3-5---3-5---5-3-5---4---3------------|

|----------|
|----------|
|----------| repeat this a bunch of times, there's some variation to it
|-3-5------| that i couldn't quite figure out, but this works just fine.
|------3-5-|
|----------|

|-----------------|
|-----------------|
|---------7---9---| this part again...
|-7---5---7---9---|
|-7---5---5---7---|
|-5---3-----------|

|---------------------------|
|---------------------------|
|---------------------------| repeat this twice
|---------------------------|
|---------------3-----------|
|-5---3-5---3-5---5-3-3-2-3-|

|---------------------------|
|---------------------------|
|---------------------------| repeat twice
|---------------------------|
|---------------5-----------|
|-7---5-7---5-7---7-5-5-4-5-|

|-------------------------------------------------|
|-------------------------------------------------|
|-------------------------------------------------|
|-------------------------------------------------|
|---------------3-------------------------3-------|
|-5---3-5---3-5---5-3---2-3-5---3-5---3-5---5-3-5-|

|---|
|---|
|-9-| I seem to hear this note quietly repeated in the background, but I might
|-7-| just be going crazy.
|---|
|---|

|-------------|
|-------------|
|-------------| this plays twice then..
|-------------|
|-14-13-12-10-|
|-12-11-10-8 -|

|-----------------|
|-----------------|
|---------7---9---| ..back to this part
|-7---5---7---9---|
|-7---5---5---7---|
|-5---3-----------|

|---------------------------|
|---------------------------|
|---------------------------| repeat this a couple of times...
|---------------------------|
|---------------3-----------|
|-5---3-5---3-5---5-3-3-2-3-|

|-----------------------|
|-----------------------|
|-----------------------|
|-----------------------|
|---------------3-------|
|-5---3-5---3-5---5-3-5-|

|-----------------------------------------------------|
|-----------------------------------------------------|
|-0-2-0-----------------------------------------------| not 100% sure of this
|-------2---0-2-0---------------------2-0-2-0-2-0-2-0-| but it works ok
|-----------------3---3-5-3-5-3-5-3-5-----------------|
|-----------------------------------------------------|

|---------------------------|
|---------------------------|
|---------------------------| play once...
|---------------------------|
|---------------3-----------|
|-5---3-5---3-5---5-3-3-2-3-|

|-----------------------|
|-----------------------|
|-----------------------| and thats it.
|-----------------------|
|---------------3-------|
|-5---3-5---3-5---5-3-5-|


for corrections or comments please email me

g_g_g_1_2_3@hotmail.com