Orbit - Gazer Text Guitar Tab

Learn the song with the online tablature player
Subject: TAB: Gazer by Orbit

 Piano tabbed for guitar......

PART A:

E]---------------------------|
B]---------------------------|
G]--10---8-------------------|
D]--10---8---10---8----------|
A]--8----6---10---8----------|
E]-----------8----6----------|

PART B:

E]---------------------------|
B]---------------------------|
G]--13---12---10---8---------|
D]--13---12---10---8---------|
A]--11---10---8----6---------|
E]---------------------------|

Song:

PART A (x4)
PART B
PART A (x3)
PART B
PART A (x7)

Lyrics:

When darkness comes, it finds you in your bed
Fast asleep with pictures in your head
And you're the gazer, serene and far away
Wake up comes and tones return to gray

Song written by Jeff Lowe Robbins.

  Rensselaer Polytechnic Institute
         Computer Science