Orbit - Yeah Text Guitar Tab

Learn the song with the online tablature player
Subject: TAB: Yeah by Orbit

Notation Used:
  > = slide to note
  ^ = bend string

INTRO
    Em    F#  G5
E]--------------------|
B]--------------------|
G]--------------------|    [x6]
D]--2-2---4---5-------|
A]--2-2---4---5-------|
E]--0-0---2---3-------|

    Em    F#  G5      C5    G5
E]------------------------------------|
B]------------------------------------|
G]--------------------5-5-------------|   [x4]
D]--2-2---4---5-5-5---5-5---5-5-5-----|
A]--2-2---4---5-5-5---3-3---5-5-5-----|
E]--0-0---2---3-3-3---------3-3-3-----|

CHORUS

  "Yeah..."
   Em    F#  G5       C5
E]------------------------------------|
B]------------------------------------|
G]--------------------5-5-------------|
D]--2-2---4---5-5-5---5-5---5-5-5-----|
A]--2-2---4---5-5-5---3-3---5-5-5-----|
E]--0-0---2---3-3-3---------3-3-3-----|

VERSE

    B5  A5   C5  B5
E]------------------------------------|
B]------------------------------------|
G]-----------5---4--------------------|
D]--9---7----5---4--------------------|
A]--9---7----3---2--------------------|
E]--7---5-----------------------------|

    [Play each chord about 16 times]

BRIDGE
(1:44 sec into track)

E]------------|
B]------------|
G]--21--21^---|  [Play this for 25+ seconds]
D]--21--21^---|
A]--19--19^---|
E]------------|

  [NOTE: This bridge is probably way off.
     It sounds sort of close, so experiment.]

Song:

Intro
Verse
Chorus
Verse
Chorus
Bridge
Chorus
Chorus + Bridge (quiet) in background

Lyrics:

(VERSE)
My mind, my heart
My pulse, my veins
My sweat, my nerves Might dull the pain
My mind, my God, my God is silence
Don't talk, don't move
Don't change a thing
Don't push, don't pull
Don't pull away
My mind becomes
Becomes deep inside

(CHORUS)
Yeah

(VERSE)
To sit, to stand
To walk, to be
My mind, my mind Becomes complete
Don't wait, don't get
Don't get excited
Exhale, inhale And cease to be
Don't talk, don't think
No sound is real
To rest, the rest
The rest is silence

(CHORUS)
Yeah

(BRIDGE)

(CHORUS)
Yeah

Song written by Jeff Lowe Robbins.

  Rensselaer Polytechnic Institute
         Computer Science