Orchestra Baobab - Pape Ndiaye Text Guitar Tab

Learn song with the online tabulature player
-------------------------------------------------------------------------------
                            Pape Ndiaye - Orchestra Baobab
-------------------------------------------------------------------------------
Tabbed by: Jeff

runs through whole song

                               .
e|------------------------------------------------------------------------------|
B|--6----------------------------------3----------------------------------------|
G|----5------------------------5---3-----2--2-----------------------------------|
D|------7-------3------2-----5--------------------------------------------------|
A|----------3/5----5------------------------------------------------------------|
E|------------------------------------------------------------------------------|

http://www.myspace.com/orchestrabaobabofficial

| /  slide up
| \  slide down
| h  hammer-on
| p  pull-off
| ~  vibrato
| +  harmonic
| x  Mute note
===============================================================================