Ordinary Boys - Call To Arms Text Guitar Tab

Learn song with the online tabulature player
once again its not perfect but its better than nothing!


E-11-11-11-11-10-10-10-10-8--8--8--8--6-6-6-6-|
B-11-11-11-11-11-11-11-11-9--9--9--9--6-6-6-6-|
G-12-12-12-12-12-12-12-12-10-10-10-10-7-7-7-7-|
D---------------------------------------------|
A---------------------------------------------|
E---------------------------------------------|

E-11-11-11-11-10-10-10-10-8--8--8--8--6-6-6-6-|
B-11-11-11-11-11-11-11-11-9--9--9--9--6-6-6-6-|
G-12-12-12-12-12-12-12-12-10-10-10-10-7-7-7-7-|
D---------------------------------------------|
A---------------------------------------------|
E---------------------------------------------|


E-8-8-8-8-7-7-7-7-8-8-8-8-11-11-11-11-11-11-11-11-10-10-10-10-8-8------11-8--|
B-8-8-8-8-8-8-8-8-8-8-8-8-13-13-13-13-11-11-11-11-11-11-11-11-8-8----8----8--|
G-8-8-8-8-7-7-7-7-8-8-8-8-13-13-13-13-12-12-12-12-12-12-12-12-8-8-10------8--|
D----------------------------------------------------------------------------|
A----------------------------------------------------------------------------|
E----------------------------------------------------------------------------|

www.myspace.com/thecoulombs