Ore Ska Band - Hana No Ska Dance Text Guitar Tab

Learn the song with the online tablature player
This song was used in a commercial for Pocky, so it's one of their most popular. 2 of 7
Ore, Hana no Ska Dance.

Intro

e-----------------------------|
B-----------------------------|
G-----------------------------|
D--10~~-----8--7--10~~--3--5--|
A--10~~-----8--7--10~~--3--5--|
E--8~~~-----6--5--8~~~--1--3--|
   C        A# A  C     F  G

e--------------------------------------|
B--------------------------------------|
G--------------------------------------|
D--10~~-----8--7--10~~--10-10-10-10-10-|
A--10~~-----8--7--10~~--10-10-10-10-10-|
E--8~~~-----6--5--8~~~--8--8--8--8--8--|
   C        A# A  C     C

Verse

e--8--8---5--5--6--6--5--5--|
B--8--8---5--5--6--6--5--5--|
G--9--9---6--6--7--7--6--6--|
D--10-10--7--7--8--8--7--7--|
A--10-10--7--7--8--8--7--7--|
E--8--8---5--5--6--6--5--5--|
   C      A     A#    A

Chorus

e---6--6--8--8---8--8--8--8---|
B---6--6--8--8---10-10-10-10--|
G---7--7--9--9---10-10-10-10--|
D---8--8--10-10--10-10-10-10--|
A---8--8--10-10--8--8--8--8---|
E---6--6--8--8----------------|
    A#    C      F

Chorus 2

e-----------------------------|
B-----------------------------|
G--------------10~--10~--10~--|
D---8~----10~--10~--10~--10~--|
A---8~----10~--8~~--8~~--8~~--|
E---6~----8~------------------|
    A#    C    F

The second time through, the chorus is distorted (above), and the fourth
time you play this (before going back into the intro part, palm mute it like
this:

e-------------------------------------------|
B-------------------------------------------|
G------------------------------10-10-10-10--|
D---(8)-(8)-8----(10)-(10)-10--10-10-10-10--|
A---(8)-(8)-8----(10)-(10)-10--8--8--8--8---|
E---(6)-(6)-6----(8)--(8)--8----------------|
     A#           C            F

Repeat other parts (I'm not writing an order, you can figure it out), until
the end where you play:

Outro

e------------------------------|
B------------------------------|
G------------------------------|
D---10-10-3--3--5--5--5--3--3--|
A---10-10-3--3--5--5--5--3--3--|
E---8--8--1--1--3--3--3--1--1--|
    C     F     G        F

e------------------------------|
B------------------------------|
G------------------------------|
D---10-10-3--3--5--5--5--3~----|
A---10-10-3--3--5--5--5--3~----|
E---8--8--1--1--3--3--3--1~----|
    C     F     G        F  <- Trombone does that little thing on this note

e------------------------------|
B------------------------------|
G------------------------------|
D---10-10-3--3--5--5--5--3--3--|
A---10-10-3--3--5--5--5--3--3--|
E---8--8--1--1--3--3--3--1--1--|
    C     F     G        F

e---------------------------------|
B---------------------------------|
G---------------------------------|
D---10-10-3--3--5--5--5--10--10~--|
A---10-10-3--3--5--5--5--10--10~--|
E---8--8--1--1--3--3--3--8---8~---|
    C     F     G        C   C

Expect to see the rest of Ore up soon, and PM me on the forums or email me with any
complaints, threats, etc.