Orgy - Dizzy Text Guitar Tab

Learn song with the online tabulature player
Dizzy 

   Rhythme play this through the whole song 

   |-----------| R 
   |-----------| 
   |-----------| 
   |-8-------6-| 
   |-8-------6-| 
   |-6-------4-| 

   Lead plays all this 

   |--------------------| L 
   |-10h11-10h11-h12^-^-| 
   |--------------------| 
   |--------------------| 
   |--------------------| 
   |--------------------| 

   |----------|----------11-------| L 
   |-10-12-12-|---12-12-----12-11-| 
   |----------|-9-----------------| 
   |----------|-------------------| 
   |----------|-------------------| 
   |----------|-------------------| 
   2x 

   |-----| L 
   |-13^-| 
   |-12^-| 
   |-----| 
   |-----| 
   |-----|