Osker - Shitface Text Guitar Tab

Learn song with the online tabulature player
SHITFACE - Osker 

Transcribed by: concrete@dog.com - www.angelfire.com/punk/oskertab 

verse 
-------------------------|---------------------------------------------------- 
-------------------------|---------------------------------------------------- 
-------------------------|---------------------------------------------------- 
-------------5-5-5-7-7-7-|---------------------------------------------------- 
-5-5-5-5-5-5-3-3-3-5-5-5-|-5-------------------------------------------------- 
-3-3-3-3-3-3-------------|-3-------------------------------------------------- 
last chord of song 
chorus 
------------------------------------------------------------------------------ 
------------------------------------------------------------------------------ 
------------------------------------------------------------------------------ 
-5-5-5-------------7-7-7------------------------------------------------------ 
-3-3-3-2-2-2-5-5-5-5-5-5------------------------------------------------------ 
-------0-0-0-3-3-3------------------------------------------------------------