Otep - Breed Text Guitar Tab

Learn song with the online tabulature player
http://www.youtube.com/watch?v=37ncqG_AoJk

------------------------------------------------------------------------

D|----------------------|
A|----------------------|
F|----------------------|
C|----------------------|              A
G|----------------------|
C|--5-5-3-5-8---3-------|

D|----------------------|
A|----------------------|
F|----------------------|
C|--5-5-3-5-8---3-------|              B
G|--5-5-3-5-8---3-------|
C|--5-5-3-5-8---3-------|

D|-------------|
A|--8---8-8----|
F|--6h7-7-7----|
C|-------------|                       C
G|-------------|
C|-------------|

D|---------|
A|---------|
F|--6~~~~--|
C|---------|                           D
G|---------|
C|---------|

D|--------------------------------|
A|--------------------------------|
F|--8-8---3-3------6-6---5-5------|
C|--8-8---3-3------6-6---5-5------|    E
G|--6-6---1-1------4-4---3-3------|
C|--------------------------------|

D|---------|
A|---------|
F|--7~~~~--|
C|---------|                           F
G|---------|
C|---------|

D|-----------------|
A|-----------------|
F|-----------------|
C|--5-5-3-5-8------|                   G
G|--5-5-3-5-8------|
C|--5-5-3-5-8------|

D|-----|
A|-----|
F|-----|
C|--5--|                              H
G|--5--|
C|--5--|



COMPOSITION :

A x 8
B x 8
(C x 7 + D) x 4
E x 4
B x 4
(C x 7 + D) x 4
E x 4
B x 8
(C x 7 + D) x 2
F
G
E x 4
B x 8
H