Otep - Eat The Children Text Guitar Tab

Learn the song with the online tablature player
e|-------------------------------------------------------------------------|
b|-------------------------------------------------------------------------|
g|-------------------------------------------------------------------------|
d|--3-3--3-2-1-2-1-0------3------3-2-1-2-1-0------3------------------------|
a|--3-3--3-2-1-2-1-0------3------3-2-1-2-1-0------3------------------------|
d|--3-3--3-2-1-2-1-0(x2)--3(x4)--3-2-1-2-1-0(x2)--3(x4)--------------------|

Bridge
after the "hurt me more than you" rythm might be off but its pretty easy
hear and work with

e|-------------------------------------------------------------------------|
b|-------------------------------------------------------------------------|
g|-------------------------------------------------------------------------|
d|--3-----4-3-----4--------------------------------------------------------|
a|--3-----4-3-----4--------------------------------------------------------|
d|--3(x7)-4-3(x7)-4--------------------------------------------------------|
    *     * *     *

Verse
"twisting and turning my insides are burning"
e|-------------------------------------------------------------------------|
b|-------------------------------------------------------------------------|
g|-------------------------------------------------------------------------|
d|--3-0-3-0-2h1--3-0-3-0-2h1--3-0-3-0-2h1--0-------------------------------|
a|--3-0-3-0-2h1--3-0-3-0-2h1--3-0-3-0-2h1--0-------------------------------|
d|--3-0-3-0-2h1--3-0-3-0-2h1--3-0-3-0-2h1--0(x8)---------------------------|
    * * * * * *  * * * * * *  * * * * * *
      pre chorus:  "the prestilence of decendense that worships my emptiness"

e|-------------------------------------------------------------------------|
b|-------------------------------------------------------------------------|
g|-------------------------------------------------------------------------|
d|--5-0-5-0-3h2--5-0-5-0-3h2--5-0-5-0-3h2-000------------------------------|
a|--5-0-5-0-3h2--5-0-5-0-3h2--5-0-5-0-3h2-000------------------------------|
d|--5-0-5-0-3h2--5-0-5-0-3h2--5-0-5-0-3h2-000------------------------------|

chorus
"Eat the chidren raw"

e|-------------------------------------------------------------------------|
b|-------------------------------------------------------------------------|
g|-------------------------------------------------------------------------|
d|--7-5-6-4-3-0--7-5-6-4-3-0--7-5-6-4-3-0----5-5-5-6---5-5-5-6-------------|
a|--7-5-6-4-3-0--7-5-6-4-3-0--7-5-6-4-3-0----5-5-5-6---5-5-5-6-------------|
d|--7-5-6-4-3-0--7-5-6-4-3-0--7-5-6-4-3-0----5-5-5-6---5-5-5-6-------------|

chorus
"operators are standing by"

e|-------------------------------------------------------------------------|
b|-------------------------------------------------------------------------|
g|-------------------------------------------------------------------------|
d|--3-----4-3-----4--------------------------------------------------------|
a|--3-----4-3-----4--------------------------------------------------------|
d|--3(x7)-4-3(x7)-4--------------------------------------------------------|
    *     * *     *

Verse
"Desending, unending but still im pretending"

e|-------------------------------------------------------------------------|
b|-------------------------------------------------------------------------|
g|-------------------------------------------------------------------------|
d|--3-0-3-0-2h1--3-0-3-0-2h1--3-0-3-0-2h1--0-------------------------------|
a|--3-0-3-0-2h1--3-0-3-0-2h1--3-0-3-0-2h1--0-------------------------------|
d|--3-0-3-0-2h1--3-0-3-0-2h1--3-0-3-0-2h1--0(x8)---------------------------|
    * * * * * *  * * * * * *  * * * * * *
      pre chorus: "they give me this affliction, a heal to my addiction"

e|-------------------------------------------------------------------------|
b|-------------------------------------------------------------------------|
g|-------------------------------------------------------------------------|
d|--5-0-5-0-3h2--5-0-5-0-3h2--5-0-5-0-3h2-000------------------------------|
a|--5-0-5-0-3h2--5-0-5-0-3h2--5-0-5-0-3h2-000------------------------------|
d|--5-0-5-0-3h2--5-0-5-0-3h2--5-0-5-0-3h2-000------------------------------|

chorus
"Eat the chidren raw"

e|-------------------------------------------------------------------------|
b|-------------------------------------------------------------------------|
g|-------------------------------------------------------------------------|
d|--7-5-6-4-3-0--7-5-6-4-3-0--7-5-6-4-3-0----4-3-4-------------------------|
a|--7-5-6-4-3-0--7-5-6-4-3-0--7-5-6-4-3-0----4-3-4-------------------------|
d|--7-5-6-4-3-0--7-5-6-4-3-0--7-5-6-4-3-0----4-3-4(x3)---------------------|

chorus
"operators are standing by"

e|-------------------------------------------------------------------------|
b|-------------------------------------------------------------------------|
g|-------------------------------------------------------------------------|
d|-------------------------------------------------------------------------|
a|--6-5-4-5-3-0----0-0-0---6-5-4-5-3-0-------------------------------------|
d|--6-5-4-5-3-0----0-0-0---6-5-4-5-3-0-------------------------------------|
    "role modle number taught u how to shave" through " dont they know that they are the prey"

e|-------------------------------------------------------------------------|
b|-------------------------------------------------------------------------|
g|-------------------------------------------------------------------------|
d|--6-5-4-5-3-0-6-5-4-5-3-0-6-5-4-3-0--------------------------------------|
a|--6-5-4-5-3-0-6-5-4-5-3-0-6-5-4-3-0--------------------------------------|
d|--6-5-4-5-3-0-6-5-4-5-3-0-6-5-4-3-0--------------------------------------|
    * * * * * * * * * * * * * * * * *
" dont they know im predator dont they no i am the prey"  i think they just keep
this until the chorus

|----------------------------------------------------------------------------|
b|---------------------------------------------------------------------------|
g|---------------------------------------------------------------------------|
d|--5-0-5-0-3h2--5-0-5-0-3h2--5-0-5-0-3h2-000--------------------------------|
a|--5-0-5-0-3h2--5-0-5-0-3h2--5-0-5-0-3h2-000--------------------------------|
d|--5-0-5-0-3h2--5-0-5-0-3h2--5-0-5-0-3h2-000--------------------------------|

chorus
"Eat the chidren raw"

e|-------------------------------------------------------------------------|
b|-------------------------------------------------------------------------|
g|-------------------------------------------------------------------------|
d|--7-5-6-4-3-0--7-5-6-4-3-0--7-5-6-4-3-0----------------------------------|
a|--7-5-6-4-3-0--7-5-6-4-3-0--7-5-6-4-3-0----------------------------------|
d|--7-5-6-4-3-0--7-5-6-4-3-0--7-5-6-4-3-0----------------------------------|

chorus
"operators are standing by"

e|-------------------------------------------------------------------------|
b|-------------------------------------------------------------------------|
g|-------------------------------------------------------------------------|
d|--0---0---0--------------------------------------------------------------|
a|--0---0---0--------------------------------------------------------------|
d|--0---0---0--------------------------------------------------------------|
  ending: "these words cut and im out for blood"

yea so thats it i think its pretty much right if u listen around i think im atleast close