Otep - Tric Text Guitar Tab

Learn song with the online tabulature player
Band- Otep
Song- Tric

Fill:      Verse:
E |---------|-------------------|-----------------------|
G |---------|-------------------|-----------------------|
Eb|---------|-------------------|-----------------------|
Bb|---------|-------------------|-----------------------|
F |---------|-------------------|-----------------------|
Bb|--/------|-0-/--7---3---5----|--0----14----13----15--|
  pick and    |-------------------------------------|
 slide up        tremolo pick these

Pre-Chorus:
E |----------------------|-------------------------|
G |----------------------|-------------------------|
Eb|----------------------|-------------------------|
Bb|----------------------|-------------------------|
F |--0-8-7-0-0-3-3-3-5-2-|-----8-7-----3-3-3-5-5-2-|
Bb|--0-8-7-0-0-3-3-3-5-2-|--0--8-7-0-0-3-3-3-5-5-2-|
                                   PM.............
Chorus:
E |---------------------------|
G |---------------------------|
Eb|---------------------------|
Bb|---------------------------|
F |--0-6-0-6-0-0--4-3-2-2-2h3-|
Bb|--0-6-0-6-0-0--4-3-2-2-2h3-|

Bridge:
E |-------------------------------|-------------------------------|
G |-------------------------------|-------------------------------|
Eb|-------------------------------|-------------------------------|
Bb|-------------------------------|-------------------------------|
F |-----------3-3-3-------6-6-6-6-|-----------3-3-3---------------|
Bb|--0-0-0-0--3-3-3--0-0--6-6-6-6-|--0-0-0-0--3-3-3--0-0--3-2-1-1-|
    PM......         ...             .......         ............

Outro:
C |----|-----|
G |----|-----|
Eb|----|-----|
Bb|----|-----|
F |-5--|--0--|
Bb|----|--0--|
   tremolo pick