Otis Redding - Good To Me Text Guitar Tab

Learn the song with the online tablature player
       Good to Me - Otis Redding

You only need two riffs to play this song.

First Riff

e|----------------------------||-----------------|
B|*--------------------------*||*---------------*|
G|---------6-----------2------||---------5-------| (Repeat each part 2x)
D|*------7---7-------3---3---*||*------6---6----*|
A|-----7-------7---3-------3--||-----6-------6---|
E|---5-----------0------------||---4-------------|

Second riff

e|---------------------------------------------------------|
B|*-------------------------------------------------------*|
G|--------8-----------------------2-----------2------------|
D|*-----9---9-------9-----7-----3---3-------3---3---------*| (Repeat 3x)
A|----9-------9---9-----7-----3-------3---3-------3--------|
E|--7-----------7-----5-----0-----------0------------------|

I prefer playing the 6th string open: let's the E ring and the extra movement on the
guitar sounds nice.

Outro
just about the same as first riff)

e|----------------------------|
B|*--------------------------*|
G|---------6-----------2------| (Repeat until end of song)
D|*------7---7-------3---3---*|
A|-----7-------7---3-------3--|
E|---5-----------0------------|

Alternate the first and second riffs twice and then outro.  Listen to song if you need
the order.

Easy right?  The hard part for me is trying to sing this while I play...