Our Lady Peace - Al Genina Leave A Light On Text Guitar Tab

Learn the song with the online tablature player
               Al Genina (Leave A Light On) - Our Lady Peace

Off their new album Healthy In Paranoid Times

e|--------------------0-----------------------0---------------------------|
B|--------1-0-----------1---------1-0-----------1-------------------------|
G|------2-----------2-----------2-----------2---------5/7-----------------|
D|----2-----------3-----------2-----------3---------3-3/5-----------------|  x3
A|--0-----------0-----------0-----------0---------------------------------|
E|------------------------------------------------------------------------|

e|------------------------------------------------------------------------|
B|--------0-----------0-1---------0-----------0-1-------------------------|
G|----------0-----------------------0-------------------------------------|
D|------0-----------2-----------0-----------2-----------------------------|  x1
A|----2-----------0-----------2-----------0-------------------------------|
E|--3-----------1-----------3-----------1---------------------------------|

e|--------------------0---------------------------------------------------|
B|--------1-0-----------1---------1-0---------0-1-------------------------|
G|------2-----------2-----------2-----------------------------------------|
D|----2-----------3-----------2-------------2-----------------------------|  x1
A|--0-----------0-----------0-------------0-------------------------------|
E|--------------------------------------1---------------------------------|

e|------------------------------------------------------------------------|
B|--------0-----------0-1---------0-----------0-1-------------------------|
G|----------0-----------------------0-------------------------------------|
D|------0-----------2-----------0-----------2-----------------------------|  x1
A|----2-----------0-----------2-----------0-------------------------------|
E|--3-----------1-----------3-----------1---------------------------------|