Our Lady Peace - Happiness The Fish Text Guitar Tab

Learn the song with the online tablature player
Author/Artist: Our Lady Peace
Title: Happiness & The Fish
x scratch note

Strum Throughout

------|-x---x-------|--|-----------------------|------------------------------|
------|-4---0-------|--|-----------------------|------------------------------|
------|-5---1---3---|--|-1------9----8----/20--|------------------------------|
------|-6---2---4---|--|-2------9----8----/20--|------------------------------|
------|-6---2---4---|--|-2------7----6----/18--|------------------------------|
------|-x---x---x---|--|-x------x----x---------|------------------------------|
     Verse Chords Strum        "Every......"

--------|-9----11----7----7---|--|-------------|------------------------------|
--------|-x----x-----x----x---|--|-------------|------------------------------|
--------|-11---13----9----9---|--|-------------|------------------------------|
--------|-9----11----7----9---|--|-7-----9-----|------------------------------|
--------|---------------------|--|-7-----7-----|------------------------------|
--------|---------------------|--|-x-----x-----|------------------------------|
          Chorus Chords Strum      Chorus End

------|-----------------------------------------------------------|-----------|
------|-----------------------------------------------------------|-----------|
------|-----------------------------------------------------------|-----------|
------|----13-----13-----13-----13----13br-13-13------------------|-----------|
------|-11-----11-----11-----11----11-------------11-13--11-13--11|/21--21-21-|
------|-----------------------------------------------------------|-----------|
        Interlude                                                  1st End

-------------|--------------|-------------------------------------------------|
-------------|--------------|-------------------------------------------------|
-------------|-x-x-x-x-x-x--|-------------------------------------------------|
-------------|-x-x-x-x-x-x--|-------------------------------------------------|
---19--19-19-|--------------|-------------------------------------------------|
-------------|--------------|-------------------------------------------------|
               2nd End Harmonics