Our Lady Peace - Neon Crossing Text Guitar Tab

Learn the song with the online tablature player
Our Lady Peace
"Neon Crossing"
>From the album: "Naveed" (Sony Music Entertainment)
(Music by Michael Turner, Raine Maida, Chris Eacrett, Arnold Lanni)
(Words by Raine Maida)
(c 1994 Sony Music Publishing/Under Zenith Publishing/Seacret
Pulishing/Catchit Songs/
 Lanni Tunes)

Riff
1A                              Riff: 1B
     ____     ____     _     _             ____     ___         _________
    |  |_|   |  |_|   |_|   |_|           |  |_|   |   |       |    |    |
|---|--|-|---|--|-|---|-|---|-|-----| |---|--|-|---|---|-------|----|----|---|
|---|--|-|---|--|-|---|-|---|-|-----| |---|--|-|---|---|-------|----|----|---|
|---4--4-4---4--4-4---4-4---4-4-----| |---7--7-7---7---6-------6/sl\7/sl\6---|
|-----------------------------------| |--------------------------------------|
|---2--2-2---2--2-2---2-2---2-2-----| |---5--5-5---5---4-------4/sl\5/sl\4---|
|-----------------------------------| |--------------------------------------|

    1        2        3     4             1        2        3       4

Riff
1C
     ____     ___         _________
    |  |_|   |   |       |    |    |
|---|--|-|---|---|-------|----|----|---|
|---|--|-|---|---|-------|----|----|---|
|---9--9-9---9---6-------6/sl\7/sl\6---|
|--------------------------------------|
|---7--7-7---7---4-------4/sl\5/sl\4---|
|--------------------------------------|

    1        2       3        4

Riff
2 (Yet to be figured out)Riff: 3

     ____     ____     ____     ____         ____     ____     ____     ___
    |  |_|   |  |_|   |  |_|   |  |_|       |  |_|   |  |_|   |  |_|   |   |
|---|--|-|---|--|-|---|--|-|---|--|-|---|---|--|-|---|--|-|---|--|-|---|---|---|
|---|--|-|---|--|-|---|--|-|---|--|-|---|---|--|-|---|--|-|---|--|-|---|---|---|
|---|--2-2---2--|-|---|--2-2---2--|-|---|---|--2-2---2--|-|---|--2-2---2---|---|
|---|-----------|-|---|-----------|-|---|---|-----------|-|---|------------|---|
|---0-----------0-0---0-----------0-0---|---0-----------0-0---0------------|---|
|---------------------------------------|----------------------------------3---|

    1        2        3        4            1        2        3        4

     ____     ____     ____     ____         ____     ____     ____     ____
    |  |_|   |  |_|   |  |_|   |  |_|       |  |_|   |  |_|   |  |_|   |  |_|
|---|--|-|---|--|-|---|--|-|---|--|-|---|---|--|-|---|--|-|---|--|-|---|--|-|---|
|---|--|-|---|--|-|---|--|-|---|--|-|---|---|--|-|---|--|-|---|--|-|---|--|-|---|
|---|--2-2---2--|-|---|--2-2---2--|-|---|---|--2-2---2--2-2---2--2-2---2--2-2---|
|---|-----------|-|---|-----------|-|---|---|-----------------------------------|
|---0-----------0-0---0-----------0-0---|---0-----------------------------------|
|---------------------------------------|---------------------------------------|

    1        2        3        4            1        2        3        4

Riff
4A                                 Riff: 4B
     ___     ___      ___     ___                  ___      ____
    |  _|   |   |    |   |   |   |           |    |   |    |    |    |
|---|---|---|---|----|---|---|---|---|   |---2___(2)--|----|----|----|---|
|---|---|---|---|----|---|---|---|---|   |---3___(3)--2___(2)---2----2---|
|---4---4---2---4___(4)--X---X---X---|   |---2___(2)--2___(2)---2----2---|
|---4---4---2---4___(4)--X---X---X---|   |---0___(0)--2___(2)---2----2---|
|---2---2---0---2___(2)--X---X---X---|   |------------0___(0)---0----0---|
|------------------------------------|   |-------------------------------|

    1       2        3       4           1    2        3         4

Riff
4C
     ___     ___
    |   |   |   |   |   |
|---3__(3)--3__(3)--|---|---|
|---3__(3)--3__(3)--2---2---|
|---0__(0)--0__(0)--2---2---|
|---0__(0)--0__(0)--2---2---|
|-------------------0---0---|
|---3__(3)--3__(3)----------|

    1       2       3   4

Riff
4D
         ___     ___
    |   |   |   |   |   |
|---3__(3)--|---|---|---|---|
|---3__(3)--2__(2)--2---2---|
|---0__(0)--2__(2)--2---2---|
|---0__(0)--2__(2)--2---2---|
|-----------0__(0)--0---0---|
|---3__(3)------------------|

    1   2       3       4

Riff
5
    _____    _____         __       _____    _____
   |_|  _|  |   |_|    |\ |  |     |_|  _|  |   |_|    |\ |
|--|-|---|--|---|-|----|--|--|--|--|-|---|--|---|-|----|--|----|
|--|-|---|--|---|-|----|--|--|--|--|-|---|--|---|-|----|--|----|
|--|-|---|--|---|-|----|--|--|--|--|-|---|--|---|-|----|--|----|
|--|-5---|--5---|-5----|--2--|--|--|-5---|--5---|-5----4--2----|
|--|-5---|--5---|-5----|--2--|--|--|-5---|--5---|-5----4--2----|
|--0-3---0--3---0-3----0--0--0--|--0-3---0--3---0-3----2--0----|

   1        2        3    4       1        2        3    4

Riff
6
                                              ___
                                      |\     |   |
|---2---------------|------|----------|---|--|---|--------------|
|---0---------------|------|---------10sl/|/12_(12)\sl----------|
|---4---------------|------|--------------|---------------------|
|---4---------------|------|--------------|---------------------|
|--(2)--------------|------|--------------|---------------------|
|-------------------|------|--------------|---------------------|

    1    2   3   4    1234    1 2 3 4        1      2   3   4

      |\                  h                                 h
|-----|--------|------|------------|------|------|------|------------|------|
|-----X--------|------|---------|------|------|------|---------|------|
|-----X--------|------|------------|------|------|------|------------|------|
|--------------|------|------------|------|------|------|------------|------|
|--------------|------|------------|------|------|------|------------|------|
|--------------|------|------------|------|------|------|------------|------|

   1  2  3  4    1234     1 2 3 4    1234   1234   1234     1 2 3 4    1234

Riff
7
    _____
   |_|_|_|  |\
|--|-|-|-|--|-------|
|--|-|-|-|--|-------|
|--4-4-4-4--4-------|
|--4-4-4-4--4-------|
|--2-2-2-2--2-------|
|-------------------|

Arrangement:

Intro
   |Riff 1A|Riff 1A|
   |Riff 1A|Riff 1B|Riff 1A|Riff 1C|
   |Riff 1A|Riff 1B|Riff 1A|Riff 1C|

Verse 1

   |Riff 2| etc.|
   All you people can you feel it waiting
   Innocence and love
   Wrapped in the arms of the burning neon
   I feel it, I feel it

PreChorus

   |Riff 3|
   It's so entertaining and so wonderful
   It magically calls for you and you

Chorus

   |Riff 4A|Riff 4B|Riff 4A|Riff 4C|
   |Riff 4A|Riff 4B|Riff 4A|Riff 4D|
   Big neon crossing, show me the way
   Big neon crossing, save my soul today

Intro Riffs

   |Riff 1A|Riff 1B|Riff 1A|Riff 1C|

Verse 2

   |Riff 2| etc. |
   Don't you worry and don't be afraid
   Does it send you to the world appealing
   Where there is spoken word that I can taste
   I'm the liar, I'm the liar

PreChorus

   |Riff 3|
   You'd be so disappointed to find out
   That the magic was not really meant for you.

Repeat Chorus:

   |Riff 4A|Riff 4B|Riff 4A|Riff 4C|
   |Riff 4A|Riff 4B|Riff 4A|Riff 4D|

Bridge

   |Riff 5|Riff 5|Riff 5|Riff 5|
   (Intro Riffs)
   |Riff 1A|Riff 1B|Riff 1A|Riff 1C|

Breakdown

   |Riff 6|
   I can't wait and I can't be the liar...

Pre chorus:

   |Riff 3|

Repeat Chorus:

   |Riff 4A|Riff 4B|Riff 4A|Riff 4C|
   |Riff 4A|Riff 4B|Riff 4A|Riff 4D|
   |Riff 4A|Riff 4B|Riff 4A|Riff 4C|
   |Riff 4A|Riff 4B|Riff 4A|Riff 4D|

   |Riff 7|
Our Lady Peace "Neon Crossing" Performance Notes: