Our Lady Peace - Our Lady Peace Text Guitar Tab

Learn the song with the online tablature player
Date: sat, june 30, 2002

E---------------------------------------------------
B---------------------------------------------------
G-----6--5--8---------------------------------------
D-----6--6--6---------------------------------------
A-----4--4--4---------------------------------------
E---------------------------------------------------

Guitar 2: Dsus2, Asus4, G, Em, G (first time only, the other times
the Asus4 is left out) (these chords shown below)

Eb----------------------------------------------------------
Bb----------------------------------------------------------
Gb----6----3------------------------------------------------
Db----6----3----4----6--------------------------------------
Ab----4----1----4----6--------------------------------------
Eb--------------2----4--------------------------------------

Pre-Chorus
(played once before chorus and in between verses)
Guitar 1

Eb------------9----------9--------------------------------
Bb----------9----------9----------------------------------
Gb--------6----------8------------------------------------
Db--------------------------------------------------------
Ab--------------------------------------------------------
Eb--------------------------------------------------------

this is all I got and I know its 2 guitars I just sorda combined them in the intro.
the other guitar by itself is

E----------------------------------------------------
B----------------------------------------------------
G-----6--5--8--6--5--8--6-----this is pretty much it-
D--------------6-------------------------------------
A--------------4-------------------------------------
E----------------------------------------------------