Our Lady Peace - The Story Of 100 Aisles Text Guitar Tab

Learn the song with the online tablature player
Riff 1
E|------------------------------------------------------------------|
B|-------10----------------------10--------------10--11--13--11--10-|
G|-------------------12----------------------12---------------------|
D|-(12)--------(12)--------(12)--------(12)-------------------------|
A|------------------------------------------------------------------|
E|------------------------------------------------------------------|

E|------------------------------------------------------------------|
B|-------10----------------------10------------------11------11-----|
G|-------------------12----------------------12---------------------|
D|-(12)--------(12)--------(12)--------(12)-------------------------|
A|------------------------------------------------------------------|
E|------------------------------------------------------------------|

                 _______________  _______________  ______________

Riff 2
|1               |2               |3
E|----------------------------------------------------------------|
B|--------------------------------6--------------------(strum)----|
G|---------------6---6-7--7-7-7---6-----------------------2-------|
D|-3--5-2--2-2---6---6-7--7-7-7---6-----------------------2-------|
A|-3--5-2--2-2-0-4---4-5--5-5-5---4-----------------------0-------|
E|-3--5-2--2-2-0--------------------------------------------------|

Riff 3
E|------------------------------------------------------------|
B|-5----5-----------------------5----5------------------------|
G|-7----5--------6---6-7--------5----5------------5h7/9---5h7-|
D|-7----7----------7------------7----5--------5h7-------------|
A|------------------------------------------------------------|
E|------------------------------------------------------------|

E|------------------------------------------------------------|
B|------------------------------5----5--------5---------------|
G|-5-------------/9---7------0--5----4--------6---------------|
D|------------------------------5----5--------5---------------|
A|-3----2-----------------------------------------------------|
E|------------------------------------------------------------|

Riff 4
E|------------------------------------------------------------------|
B|------------------------------------------------------------------|
G|------------------------------------------------------------------|
D|-3---5-3--5-5-5-0---0-0-0-0-0-0-0-3---0-3--3--0---0-0-0-0-0-0-0-0-|
A|-3---5-3--5-5-5-0---0-0-0-0-0-0-0-3---0-3--3--0---0-0-0-0-0-0-0-0-|
E|-3---5-3--5-5-5-0---0-0-0-0-0-0-0-3---0-3--3--0---0-0-0-0-0-0-0-0-|

E|------------------------------------------------------------------|
B|------------------------------------------------------------------|
G|------------------------------------------------------------------|
D|-3---5-3--5-5-5-0---0-0-0-0-0-0-0-5-5-5-5-5-5-5-3---3-3-3-3-3-3-3-|
A|-3---5-3--5-5-5-0---0-0-0-0-0-0-0-5-5-5-5-5-5-5-3---3-3-3-3-3-3-3-|
E|-3---5-3--5-5-5-0---0-0-0-0-0-0-0-5-5-5-5-5-5-5-3---3-3-3-3-3-3-3-|

Riff 5
E|------------------------------------------------------------|
B|-5----5---------------8---(8)\-5----5----------5------------|
G|-7----5-------------9----------5----5--------5---5---5h7----|
D|-7----7--------7/10------------7----5--------------7--------|
A|------------------------------------------------------------|
E|------------------------------------------------------------|

E|------------------------------------------------------------|
B|------1--------1~~/8-----------1~~/8--------8\1-------------|
G|----------------------9-------------------------2-----------|
D|--------------------------------------10--------------------|
A|-3----2-----------------------------------------------------|
E|------------------------------------------------------------|

Riff 6
w/palm mute
E|-----------------------------------------------------------------|
B|-----------------------------------------------------------------|
G|-----------------------------------------------------------------|
D|-5-5-5-5-5-5-5-5-5-5-5-5-7-7-7-7-3-3-0-3---0---3---0---3---0-3-0-|
A|-5-5-5-5-5-5-5-5-5-5-5-5-7-7-7-7-3-3-0-3---0---3---0---3---0-3-0-|
E|-5-5-5-5-5-5-5-5-5-5-5-5-7-7-7-7-3-3-0-3---0---3---0---3---0-3-0-|

Riff 7
E|------------------------------------------------5----------------|
B|----9-------------------------8----------------------------------|
G|----------10------------------------------4--5-------------------|
D|-9-----9----------------7--9-------------------------------------|
A|--------------------10-----------------5-------------------------|
E|-----------------------------------------------------------------|

E|-----------------------------------------------------------------|
B|----------6-------------------8--------pm..........-----<--------|
G|---------------------------------------7---------<------<--------|
D|----5--7----------------7--9-----------7---<-----<------<--------|
A|-8------------------10-----------------5---------<------<--------|
E|--------------------------------------------------------<--------|

The Sequence:

Riff 1
-2x

Riff 2
-4x

Riff 3
-1x

Riff 2
-4x

Riff 4
-1x

Riff 2
-4x

Riff 5
-1x

Riff 2
-4x

Riff 4
-1x

Riff 6
-3x

Riff 7
-1x

Riff 2
-4x

Riff 4
-2x

End On G
    D|--5--|
    A|--5--|
    E|--5--|