Our Lady Peace - Wipe That Smile Off Your Face Chords

First Verse Riff
Chorus Riff
Chorus Riff
Chorus Riff
 
         
         
         
         
         
X
2
3
1
5 fr
         
         
         
         
         
1
3
4
1
1
1
5 fr
         
         
         
         
         
X
X
1
1
1
8 fr
         
         
         
         
         
X
3
2
4
1
2 fr
         
         
         
         
         
X
1
4
4
4
7 fr
         
         
         
         
         
X
1
3
4
2

9 fr
         
         
         
         
         
X
4
3
1
2
X
12 fr
         
         
         
         
         
X
1
3
4
2
1
5 fr
         
         
         
         
         
X
         
         
         
         
         
3
2
4
3 fr
         
         
         
         
         
1
3
4
2
1
1
         
         
         
         
         
2
1
3
4
3 fr
         
         
         
         
         
X
X
3
2
1
1
5 fr
         
         
         
         
         
X
X
1
3
4
3
7 fr
         
         
         
         
         
X
4
3
1
2
1

10 fr
         
         
         
         
         
X
1
2
3
4
X
10 fr
         
         
         
         
         
X
1
3
3
3
1
12 fr
         
         
         
         
         
3
2
1
1
1
4
         
         
         
         
         
1
3
4
2
1
1
5 fr
         
         
         
         
         
X
4
3
1
2
1
3 fr
         
         
         
         
         
X
X
1
2
4
3
         
         
         
         
         
X
X
3
2
1
1
8 fr
         
         
         
         
         
X
1
3
3
3
1
10 fr
         
         
         
         
         
4
3
1
1
1
X

10 fr
         
         
         
         
         
3
2
1
1
1
4
No chord
    
Standard guitar tuning:
E
A
D
G
B
E
Capo on 3 fret

Am G F

e|--0--|  e|--0--|  e|--0--|
B|--1--|  B|--0--|  B|--0--|
G|--2--|  G|--4--|  G|--4--|
D|--2--|  D|--5--|  D|--3--|
A|--0--|  A|--5--|  A|--3--|
E|-----|  E|--3--|  E|--1--|

Intro chords

Am G F Am G

Am G F Am G

Verses

Am It's just the two of us G A silver cross F And some strength that you won'tAm belGieve Am See I'm not your friend G And I won't pretend F That I've come here fAmor pGeace Am Well I'm not afraid G I'm gonna make you pay F I'm gonna wipe that smile off yoAmur fGace

Chorus

And this is Amwar Gnow And I'm gonna Fwipe that smile off yoAmur fGace

Verses

Am The time has come G To drop the bomb F On all the pain you've been AmsellGing Am See I don't like you G Or your attitude F Or the company that yAmou kGeep

Chorus

And this is Amwar Gnow And I'm gonna Fwipe that smile off yoAmur fGace And this is Amwar Gnow And I'm gonna Fwipe that smile off yoAmur fGace

Breakdown

e|-------------------------0--|
B|-------------------------1--|
G|--5----------------------2--|
D|--5--7---5-7-5-7-5--3-3--2--|
A|--3--7---5-7-5-7-5--3-3--0--|
E|-----5---3-5-3-5-3--1-1--0--|
e|-------------------------0--|
B|-------------------------1--|
G|--5----------------------2--|
D|--5--7---5-7-5-7-5--3-3--2--|
A|--3--7---5-7-5-7-5--3-3--0--|
E|-----5---3-5-3-5-3--1-1--0--|
e|-------------------------0--|
B|-------------------------1--|
G|--5----------------------2--|
D|--5--7---5-7-5-7-5--3-3--2--|
A|--3--7---5-7-5-7-5--3-3--0--|
E|-----5---3-5-3-5-3--1-1--0--|
e|-------------------------0--|
B|-------------------------1--|
G|--5----------------------2--|
D|--5--7---5-7-5-7-5--3-3--2--|
A|--3--7---5-7-5-7-5--3-3--0--|
E|-----5---3-5-3-5-3--1-1--0--|

Intro chords

Am G F Am G

Verses

Am It's just the two of us G A silver cross F And some strength that you won'tAm belGieve Am Well I'm not afraid G I'm gonna make you pay F I'm gonna wipe that smile off yoAmur fGace

Chorus

It's Amwar Gnow And I'm gonna Fwipe that smile off yoAmur fGace And this is Amwar Gnow And I'm gonna Fwipe that smile off yoAmur fGace, oh ... And Amwipe that smile And Gwipe that smile I'm gonna Fwipe that smile off yoAmur fGace And Amwipe that smile And Gwipe that smile I'm gonna Fwipe that smile off yoAmur fGace

Outro

e|-------------------------0--|
B|-------------------------1--|
G|--5----------------------2--|
D|--5--7---5-7-5-7-5--3-3--2--|
A|--3--7---5-7-5-7-5--3-3--0--|
E|-----5---3-5-3-5-3--1-1--0--|
e|-------------------------0--|
B|-------------------------1--|
G|--5----------------------2--|
D|--5--7---5-7-5-7-5--3-3--2--|
A|--3--7---5-7-5-7-5--3-3--0--|
E|-----5---3-5-3-5-3--1-1--0--|
e|-------------------------0--|
B|-------------------------1--|
G|--5----------------------2--|
D|--5--7---5-7-5-7-5--3-3--2--|
A|--3--7---5-7-5-7-5--3-3--0--|
E|-----5---3-5-3-5-3--1-1--0--|
e|---------------------------------0--|
B|---------------------------------1--|
G|--5------------------------------2--|
D|--5---7---5--7--5--7--5---3--3---2--|
A|--3---7---5--7--5--7--5---3--3---0--|
E|------5---3--5--3--5--3---1--1---0--|

All Content on this page is the property of the copyright owner of the original composition.