Our Last Night - Message Without A Meaning Text Guitar Tab

Learn the song with the online tablature player
                      OLN-Message Without A Meaning-

h: hammer
p: pull off

(clean, with a little echo)

d#|-----3------0------3-----0------3-----0-----3-----0------| Repeat this
A#|---1------1------1-----1------1-----1-----1-----1--------| until sec 0.31
F#|-2------2------2-----2------2-----2-----2-----2----------|
C#|---------------------------------------------------------|
G#|---------------------------------------------------------|
C#|---------------------------------------------------------|

Rythem Guitar:
(at sec 0.31 with distortion)

d#|-----------------------------------------------------------|
A#|-----------------------------------------------------------|
F#|--55-5-5--5444-44-4--55-5-5--5444-44-4--5555555555555555---|
C#|--55-5-5--5555-55-5--55-5-5--5555-55-5--5555555555555555---|
G#|--33-3-3--3222-22-2--33-3-3--3222-22-2--3333333333333333---|
C#|-----------------------------------------------------------|

Lead Guitar:

d#|-----------------------------------------------------------|
A#|-----------------------------------------------------------|
F#|-----------------------------------------4h5p4-4h5p4-4h5p4-|
C#|----------------------------------------------5-----5-----5|
G#|-----------------------------------------------------------|
C#|-----------------------------------------------------------|

Verse
(sec 0.49) (Palm Mute Here,..figure out strumming pattern)

d#|---------------------------------------------------------|
A#|---------------------------------------------------------| <-Repeat riff
F#|-----5---5----5----5---5---5--4-4-4-4-4-4-4-4-4----------|    X2
C#|--55-5-5-5-55-5-55-5-5-5-5-5--5-5-5-5-5-5-5-5-5----------|
G#|--33-3-3-3-33-3-33-3-3-3-3-3--2-2-2-2-2-2-2-2-2----------|
C#|---------------------------------------------------------|