Our Time Down Here - Flip-up Caps And Crew Neck Sweats Text Guitar Tab

Learn the song with the online tablature player
Intro

E|-----------------------------------------------------------|
B|-----------------------------------------------------------|
G|--6-6-6-6-6-6-6-6-6-6-6-6-6-6-6-6-6-6----6-----------------|
D|--6-6-6-6-6-6-6-6-6-6-6-6-6-6-6-6-6-6----6-----------------|
A|--4-4-4-4-4-4-4-4-4-4-4-4-4-4-4-4-4-4----4-----------------|
D|-----------------------------------------------------------|

Verse
Strumming is easy to figure out.

E|-----------------------------------------------------------|
B|-----------------------------------------------------------|
G|--6----4---------------------------------------------------|
D|--6----4----4----------------------------------------------|
A|--4----2----4----------------------------------------------|
D|------------4----------------------------------------------|

End

E|-----------------------------------------------------------|
B|-----------------------------------------------------------|
G|--6\-------------------------------------------------------|
D|--6\-------------------------------------------------------|
A|--4\-------------------------------------------------------|
D|-----------------------------------------------------------|