Ours - Dizzy Text Guitar Tab

Learn the song with the online tablature player
OURS - DIZZY

Chords used:
Bm: 224432
A: X02225
G: 320033
Asus4(#11): 002234
D: XX0232 (this will be called A*)

Intro
  Bm G   D A   Bm G   D A

Vs.
A A  A A  A A
We ran, we starved the things that feel
A A  A A
Out back, the drunken waters steal from me

Ch.
Bm G D A
If we beat him down will he stay?
Bm G D A
He's a little dizzy and i feel it starting to take me
Bm
Where did everybody go?
G D A
I need them now to save me

Vs.2
We fell, when they choked the things that feed
How come we hurt the ones we need?
Lie down and stretch upon the sea

CH (minus "save me"....replace with 1st CH line)

solo
|-------------------------|------------|
|-------------------------|------------|
|-------------------------|------------| play 4X's
|------------0--2----0--2-|-4--4---2---|
|-2----2--4---------------|------------|
|-------------------------|------------|

CB

Solo2
A)
Bm G
|--------------------------------------------------------|
|--------------------------------------------------------|
|-9h11-9h11-9h11-9h11-11p9--9h11-9h11-9h11-9h11-11p9-|
|--------------------------------------------------------|
|--------------------------------------------------------|
|--------------------------------------------------------|

1. D A
|----------------------------------|
|----------------------------------|
|-9h11-9h11-9h11-9h11-11p9---------| back to A)
|---------------------------11~----| play 2 ending
|----------------------------------|
|----------------------------------|

2.
|---------------------------------|
|---------------------------------|
|-9h11-9h11-9h11-9h11-11b--11p9---|
|---------------------------------|
|---------------------------------|
|---------------------------------|

B)
Bm G
|------------------------------------------------9------|
|---------------------12--------------------------------|
|-9h11-9h11-9h11-9h11----11--9h11-9h11-9h11-9h11--11-|
|-------------------------------------------------------|
|-------------------------------------------------------|
|-------------------------------------------------------|

D A
|---------------------10-------|
|------------------------------|
|-9h11-9h11-9h11-9h11----12~---| play B) 2X's
|------------------------------|
|------------------------------|
|------------------------------|

Alternative way of playing it

Opening Chords/Chorus:

Bm  G  D  A

Verse

E|--5---5----4---4--------
B|--5---5----3---3--------
G|----6---6----2---2------
D|------------------------
A|------------------------
E|------------------------

First Solo

E|------------------------------------
B|------------------------------------
G|------------------------------------
D|------------------------------------
A|--2--2-4-5-5/7--5-7--7/9--9-7-------
E|------------------------------------

Second Solo

E|----------------------------------
B|----------------------------------
G|----------------------------------
D|--14h16-14h16-14h16-14h16-16p14---
A|----------------------------------
E|----------------------------------

E|----------------------------------
B|----------------------------------
G|----------------------------------
D|--14h16-14h16-14h16-14h16-16p14---
A|----------------------------------
E|----------------------------------

E|---------------------------------------
B|---------------------------------------
G|---------------------------------------
D|--14h16-14h16-14h16-14h16-16p14--------
A|----------------------------------16---
E|---------------------------------------

E|----------------------------------
B|----------------------------------
G|----------------------------------
D|--14h16-14h16-14h16-14h16-16p14---
A|----------------------------------
E|----------------------------------

E|----------------------------------
B|----------------------------------
G|----------------------------------
D|--14h16-14h16-14h16-14h16-16p14---
A|----------------------------------
E|----------------------------------

E|---------------------------------------
B|---------------------------------------
G|---------------------------------------
D|--14h16-14h16-14h16-14h16--16br--------
A|---------------------------------------
E|---------------------------------------

E|---------------------------------
B|---------------------------------
G|--------------------------16-----
D|--14h16-14h16-14h16-14h16----17--
A|---------------------------------
E|---------------------------------

E|---------------------------------
B|---------------------------------
G|--------------------------18-----
D|--14h16-14h16-14h16-14h16----17--
A|---------------------------------
E|---------------------------------

E|---------------------------------
B|---------------------------------
G|--------------------------19-----
D|--14h16-14h16-14h16-14h16----17--
A|---------------------------------