Outer Limits - Another Night Alone Text Guitar Tab

Learn the song with the online tablature player
                             another night alone-outer limits

e|---------------------------------------------------------------------------|
B|---------------------------------------------------------------------------|
G|-----7777777777------------------------------------------------------------|
D|-----7777777777--77777777777--999999999-----555555555----------------------|
A|-----5555555555--77777777777--999999999-----555555555----------------------|
E|-----------------55555555555--777777777-----333333333----------------------|
distorted
e|---------------------------------------------------------------------------|
B|---------------------------------------------------------------------------|
G|---------------------------------------------------------------------------|
D|-------------------------------4-h5----4-5-7-5-4-7--4-5--4---4-------------|
A|----4-5--4-5-7-5-4-5-4-5-7-5-7------7--------------7-------7---5-----------|
E|---------------------------------------------------------------------------|
solo distorted
e|---------------------------------------------------------------------------|
B|---------------------------------------------------------------------------|
G|---------------------------------------------------------------------------|
D|----4-5-7-5-4----------------4-----2-4-5-4-2-4-----------------------------|
A|--5-----------5----4-5-7-5-4----2-----------------5---5--------------------|
E|-----------------5-----------------------------3-3--33---------------------|

| /  slide up
| \  slide down
| h  hammer-on
| p  pull-off
| ~  vibrato
| +  harmonic
| x  Mute note