Outlandish - Look Into My Eyes Text Guitar Tab

Learn the song with the online tablature player
    F# F#     C#  C#  C#      F# F#      Badd9            F# F# F# F#  F# F#
e|-2--2------x---x---x-------2--2-------2--2-----------x--2--2--2--2---2--2-|
B|-2--2------x---x---x-------2--2-------2----2---------x--2--2--2--2---2--2-|
G|-3--3------x---6---6-------3--3-------4------4-------x--3--3--3--3---3--3-|
D|-4--4------x---6---6-------4--4-------4--------------2--4--4--4--4---4--4-|
A|-4--4------x---4---4-------4--4-------2--------------2--4--4--4--4---4--4-|
E|-2--2------x---4---4-------2--2-------2--------------2--2--2--2--2---2--2-|

       F# F# F# F#
e|-x--2--2--2--2-|
B|-x--2--2--2--2-|
G|-x--3--3--3--3-|
D|-2--4--4--4--4-|
A|-2--4--4--4--4-|
E|-2--2--2--2--2-|

I really hope You can use it :D
_______
Z-Nax..