Outrage - Frontlines Text Guitar Tab

Learn the song with the online tablature player
Frontlines
Outrage
Savior

Figure strums patterns yourself.

-----------------------|
-----------------------|
----------------10--9--|
------------8----------|
--2----3----8----8--7--|
--0----1----6----------|

-----------------------|
-----------------------|
-------9---------------|
------------7----8-----|
--2----7----7----8-----|
--0---------5----6-----|

-----------------------|
-------5---------------|
------------------9----|
-------2---(8)---------|
--2---------8-----7----|
--0---------6----------|

------------|
------------|
------------|
-------3----|
--2---------|
--0---------|

(harmonics)
----------------------|
-----7--5--------7----|
--5--------7--5-------|
----------------------|
----------------------|
----------------------|