Over My Dead Body - Be There Text Guitar Tab

Learn the song with the online tablature player
KEY:    * = palm mute

Start out with a long slow pickslide...

You're always there to pick me up...

e-|--------------------------------|
B-|--------------------------------|
G-|--77-777-799-999-9--------------|            3x
D-|--77-777-799-999-955-555-55-555-|
A-|--55-555-577-777-755-555-55-555-|
E-|------------------33-333-33-333-|
                        ***    ***

You are the deffinition...

e-|--------------------------------|
B-|--------------------------------|
G-|--77-777-799-999-9--------------|            1x
D-|--77-777-799-999-955-555-5-54-4-|
A-|--55-555-577-777-755-555-5---7--|
E-|------------------33-333-3------|
                        ***

Because I know that this...

e-|------------------------------------|
B-|------------------------------------|
G-|--7--------9------------------------|        1x
D-|--7--------9--------5-5555555555555-|
A-|--5--------7--------5-5555555555555-|
E-|--------------------3-3333333333333-|
                         *** ** ** **

And you know that...

e-|----------------------------------|
B-|----------------------------------|
G-|--7--------9----------------------|          1x
D-|--7--------9--------55555555-54-4-|
A-|--5--------7--------55555555---7--|
E-|--------------------33333333------|

When I saw you, and you told me...

e-|--------------------------------|
B-|--------------------------------|
G-|--7777777799999999--------------|            3x
D-|--777777779999999955555555-54-4-|
A-|--555555557777777755555555---7--|
E-|------------------33333333------|

e-|------------------------------------|
B-|------------------------------------|
G-|--7--------9----------------------7-|                1x
D-|--7--------9--------55555555-54-4-7-|
A-|--5--------7--------55555555---7--5-|
E-|--------------------33333333--------|