Over The Rhine - The Poopsmith Song Text Guitar Tab

Learn the song with the online tablature player
Gtr I (D A D G B E) - 'The Poopsmith Song - Over the Rhine'

Intro/Chorus:

||--------5----5---------5----5-|-------3---3--------3---3-----||
||o---------3--------------3----|---------3------------3------o||
||----5-------------5-----------|---4------------4-------------||
||------3--------------3--------|-----3------------3-----------||
||o-----------------------------|-----------------------------o||
||--5-------0----5---------0----|-5-------0----5-------0-------||  x2

Verse

||----------------------------|-------------------------------||
||o---------3------------3----|-------5-3-5--------5-3--5----o||
||--------6---6--------6---6--|-------------------------------||
||----5------------5----------|---5------------5--------------||
||o-----5------------5--------|-----5------------5-----------o||
||--5-------0---5--------0----|-5-------0---5--------0--------||  x2

This is the basic structure. Just repeat this over and over.