Overkill - Battle Text Guitar Tab

Learn the song with the online tablature player
BATTLE
                                 BY OVERKILL
                              FROM THE 95 ALBUM
                              THE KILLING KIND

Legend:

h    hammer on
p    pull off
.    palm mute
A.H  artificial harmanic
~~   vibrato
/    slide up
\    slide down

e|----------------------------------------------------------------------|
B|----------------------------------------------------------------------|
G|----------------------------------------------------------------------|
D|----------------------------------------------------------------------|
A|----------------------------------------------------------------------|
E|0000---0000000--------------------------------------------------------|
         \-x29-/

e|-----------------------------------------------|
B|-----------------------------------------------|
G|-----------------------------------------------|
D|-----------------------------------------------|
A|-3---------------------------------------------|
E|-1-0000----000000----000000----000000----------|
     ....    ......    ......    ......
     \---------------x4----------------/

e|----------------------------------------------------------------------|
B|----------------------------------------------------------------------|
G|----------------------------------------------------------------------|
D|-------------9-7----------------------9-7-------------------7---------|
A|-2-8-7-5-7-8-7-5-8-8-7-5--2-8-7-5-7-8-7-5-8-8-7-5-8-7-5-7-5-5---------|
E|-0-6-5-3-5-6-----6-6-5-3--0-6-5-3-5-6-----6-6-5-3-6-5-3-5-3-----------|

e|-----------------------------------------------------------------------|
B|-----------------------------------------------------------------------|
G|---------------------------~-------------------------------------------|
D|---9-9---9-9-9---7---------A.H-----------------------------------------|
A|---7-7---7-7-7---5---------7--------2----------------------------------|
E|------------------------------------0----------------------------------|

e|-----------------------------------------------------------------------|
B|-----------------------------------------------------------------------|
G|-----------------------------------------------------------------------|
D|-----------------------------------------------------------------------|
A|--7-8-5----------------------------------------------------------------|
E|--5-6-3-----0000000-00000-0000000-00000-0000000-00000-0000000----------|
              ....... ..... ....... ..... ....... ..... .......

e|-----------------------------------------------------------------------|
B|-----------------------------------------------------------------------|
G|-----------------------------------------------------------------------|
D|-----------------------------------------------------------------------|
A|--7-8-5--------------------------------------------------------7-8-5---|
E|--5-6-3-----0000000-00000-0000000-00000-0000000-00000-0000000--5-6-3---|
              ....... ..... ....... ..... ....... ..... .......

e|---------------------------------------------------------|
B|---------------------------------------------------------|
G|---------------------------------------------------------|
D|---------------------------------------------------------|
A|----------------------------------8-7-5------------------|
E|--0000000--0000000-0000000-000000-6-5-3------------------|
    .......  ....... ....... ......

e|---------------------------------------------------------|
B|---------------------------------------------------------|
G|---------------------------------------------------------|
D|---------------------------------------------------------|
A|----------------------------------8-7-5------------------|
E|--0000000--0000000-0000000-000000-6-5-3------------------|
    .......  ....... ....... ......

 "Can I interest you with nothing..."
e|--------------------------------------------------------------------|
B|--------------------------------------------------------------------|
G|--------------------------------------------------------------------|
D|--------------------------------------------------------------------|
A|-------------------------------------------------7-8-5--------------|
E|-0000000101---0000000101---0000000101---0000000--5-6-3--------------|
   ..........   ..........   ..........   .......

e|--------------------------------------------------------------------|
B|--------------------------------------------------------------------|
G|--------------------------------------------------------------------|
D|--------------------------------------------------------------------|
A|-------------------------------------------------7-8-5--------------|
E|-0000000101---0000000101---0000000101---0000000--5-6-3--------------|
   ..........   ..........   ..........   .......

e|--------------------------------|
B|--------------------------------|
G|--------------------------------|   x4
D|--9-7-9---12-11-10--------------|
A|--7-5-7---10-9--8---------------|
E|--------00----------------------|

e|---------------------------------------------------------|
B|---------------------------------------------------------|
G|---------------------------------------------------------|
D|---------------------------------------------------------|
A|----------------------------------8-7-5------------------|
E|--0000000--0000000-0000000-000000-6-5-3------------------|
    .......  ....... ....... ......

e|---------------------------------------------------------|
B|---------------------------------------------------------|
G|---------------------------------------------------------|
D|---------------------------------------------------------|
A|----------------------------------8-7-5------------------|
E|--0000000--0000000-0000000-000000-6-5-3------------------|
    .......  ....... ....... ......

"No one loves you baby now without saying please...
e|--------------------------------------------------------------------|
B|--------------------------------------------------------------------|
G|--------------------------------------------------------------------|
D|--------------------------------------------------------------------|
A|-------------------------------------------------7-8-5--------------|
E|-0000000101---0000000101---0000000101---0000000--5-6-3--------------|
   ..........   ..........   ..........   .......

 "Can I offer you salvation..."
e|--------------------------------------------------------------------|
B|--------------------------------------------------------------------|
G|--------------------------------------------------------------------|
D|--------------------------------------------------------------------|
A|-------------------------------------------------7-8-5--------------|
E|-0000000101---0000000101---0000000101---0000000--5-6-3--------------|
   ..........   ..........   ..........   .......

e|--------------------------------|         e|-------------------|
B|--------------------------------|         B|-------------------|
G|--------------------------------|   x4    G|-------------------|
D|--9-7-9---12-11-10--------------|         D|-------------------|
A|--7-5-7---10-9--8---------------|         A|---8-8-------------|
E|--------00----------------------|         E|---6-6-------------|

e|--------------------------------|
B|--------------------------------|
G|--------------------------------|   x4
D|--9-7-9---12-11-10--------------|
A|--7-5-7---10-9--8---------------|
E|--------00----------------------|

e|---------------------------------------------------------------------|
B|---------------------------------------------------------------------|
G|---------------------------------------------------------------------|
D|---------------------------~~----------------------------------------|
A|-5-4-3---------2-5-4---5---3---8--7--5-5--3-3--2-5-4--5--------------|
E|-3-2-1--00-----0-3-2-----5-----6--5--3-3--1-1--0-3-2----5------------|
          ..                           . .  . .

e|------------------------------------|
B|------------------------------------|
G|----------------semi-harmonic-------|
D|---------------------5\-------------|
A|-3h4p3h4p3h4p3h4p3-------------8-7--|
E|-------------------------------6-5--|

e|--------------------------------------------------------------------|
B|--------------------------------------------------------------------|
G|--------------------------------------------------------------------|
D|--------------------------------------------------------------------|
A|-55-33---22222-22222-22222-22222-22222-22222-22222-2222222-22222----|
E|-33-11---00000-00000-00000-00000-00000-00000-00000-0000000-00000----|
   .. ..   ..... ..... ..... ..... ..... ..... ..... ....... .....

e|--------------------------------------------------------------------|
B|--------------------------------------------------------------------|
G|--------------------------4--------3-------2-------3p2--------------|
D|--------------------------4--------3-------2------------------------|
A|-22222-22222-22222-222222-------------------------------------------|
E|-00000-00000-00000-000000---000000---000000--000000-----------------|
   ..... ..... ..... ......   ......   ......  ......

e|--------------------------------------------------------------------|
B|--------------------------------------------------------------------|
G|--------------------------4--------3-------2------------------------|
D|--------------------------4--------3-------2---------8\7------------|
A|-22222-22222-22222-222222----------------------------6\5------------|
E|-00000-00000-00000-000000---000000---000000--000000-----------------|
   ..... ..... ..... ......   ......   ......  ......

  "Why do you stay there?..."
e|-----------------------------------------------------------------|
B|-----------------------------------------------------------------|
G|---------~-----------~-----------~-------------------------------|
D|---------4-----------3-----------2-----------8/7-----------------|
A|-222222-----222222-------222222------222222--6/5-----------------|
E|-000000-----000000-------000000------000000----------------------|
   ......     ......       ......      ......

e|-----------------------------------------------------------------|
B|-----------------------------------------------------------------|
G|---------~-----------~-----------~-------------------------------|
D|---------4-----------3-----------2-----------8/7-----------------|
A|-222222-----222222-------222222------222222--6/5-----------------|
E|-000000-----000000-------000000------000000----------------------|
   ......     ......       ......      ......

e|-----------------------------------------------------------------------|
B|-----------------------------------------------------------------------|
G|-----------------------------------------------------------------------|
D|-----------------------------------------------------------------------|
A|-88888888--7-5-7----88888888--7-5-7--88888888--7-5-7-------------------|
E|-66666666--5-3-5----66666666--5-3-5--66666666--5-3-5---6-5-3-5-6-5-3-5-|
   ........           ........

e|----------------------------------------------------------------------|
B|----------------------------------------------------------------------|
G|----------------------------------------------------------------------|
D|----------------------------------------------------------------------|
A|------------------2222222-------------------222-----------------------|
E|-6-5-3-5-6-5-3-5--0000000-------------------000-----------------------|
   . . . . . . . .  .......                   ...

  "Deciple of chaos..."
e|-------------------------------------------------------------------------|
B|-------------------------------------------------------------------------|
G|-------------------------------------------------------------------------|
D|-------------------------------------------------------------------------|
A|-7-8-5-------------------------------------------------7-8-5-------------|
E|-5-6-3-0000000101---0000000101---0000000101---0000000--5-6-3-------------|
         ..........   ..........   ..........   .......

  "Deciple of chaos, the silent roar..."
e|--------------------------------------------------------------------|
B|--------------------------------------------------------------------|
G|--------------------------------------------------------------------|
D|--------------------------------------------------------------------|
A|-------------------------------------------------7-8-5--------------|
E|-0000000101---0000000101---0000000101---0000000--5-6-3--------------|
   ..........   ..........   ..........   .......

e|--------------------------------|         e|-------------------|
B|--------------------------------|         B|-------------------|
G|--------------------------------|   x4    G|-------------------|
D|--9-7-9---12-11-10--------------|         D|-------------------|
A|--7-5-7---10-9--8---------------|         A|---8-8-------------|
E|--------00----------------------|         E|---6-6-------------|

e|--------------------------------|
B|--------------------------------|
G|--------------------------------|   x4
D|--9-7-9---12-11-10--------------|
A|--7-5-7---10-9--8---------------|
E|--------00----------------------|

e|----------------------------------------------------------------------|
B|----------------------------------------------------------------------|
G|----------------------------------------------------------------------|
D|--9-7-9---------9-7-9---------9-7-9--------9-7-9----12-11-10----------|
A|--7-5-7---------7-5-7---------7-5-7--------7-5-7----10-9--8-----------|
E|--------0000000-------0000000-------000000-------00-------------------|
          .......       .......       ......       ..

e|----------------------------------------------------------------------|
B|----------------------------------------------------------------------|
G|----------------------------------------------------------------------|
D|--9-7-9---------9-7-9---------9-7-9--------9-7-9----12-11-10--9-9-----|
A|--7-5-7---------7-5-7---------7-5-7--------7-5-7----10-9--8---7-7-----|
E|--------0000000-------0000000-------000000-------00-------------------|
          .......       .......       ......       ..