Overkill - I Hear Black Text Guitar Tab

Learn the song with the online tablature player
I Hear Black
Overkill

Intro
A
E||--------------------------|----------------------|--------------------------|
B||--------------------------|----------------------|--------------------------|
G||*-------------------------|----------------------|--------------------------|
D||*-------------------------|----------------------|--------------------------|
A||--------------------------|--------------4--3--2~|--------------------------|
E||---0--0--2--5--2--0--2~---|--0--0--2--5----------|--0--0--2--5--2--0--2--0--|

Intro
B1
--------------------------||--------------------|------------------|
--------------------------||--------------------|------------------|
-------------------------*||*-------------------|------------------|
-------------------------*||*--4----------------|------------------|
--3/4-3-------------------||---4----------------|------------------|
-----------0--5-7-5-------||---2----------------|------------------|
                              ***Play Intro B1 & B2 Together***

-------------------|------------------|-------------------|------------------|
-------------------|------------------|-------------------|------------------|
-------------------|------------------|-------------------|------------------|
--7----------------|------------------|--6----------------|------------------|
--7----------------|------------------|--6----------------|------------------|
--5----------------|------------------|--4----------------|------------------|

                           End B1
---------------|-------------------|
---------------|-------------------|
---------------|------------------*|
--5------------|------------------*|
--5------------|-------------------|
--3------------|-------------------|

Intro
B2
|--------------------------|-------------------------|
|--------------------------|-------------------------|
|*-------------------------|-------------------------|
|*-------------------------|-------------------------|
|--------------------------|--------4--3--2----------|
|---2--5--2--0--2----0--0--|--2--5-------------0--0--|

-------------------------|-------------------------|-------------------------|
-------------------------|-------------------------|-------------------------|
-------------------------|-------------------------|-------------------------|
-------------------------|-------------------------|-------------------------|
-------------------------|--------4--3--2----------|-------------------------|
--2--5--2--0--2----0--0--|--2--5-------------0--0--|--2--5--2--0--2----0--0--|

                                                                  End B2
-------------------------|--------------------|--------------------------||
-------------------------|--------------------|--------------------------||
-------------------------|--------------------|-------------------------*||
-------------------------|--------------------|-------------------------*||
--------4--3--2----------|--------------------|--3/4\3-------------------||
--2--5-------------0--0--|--2--5--2--0--2--0--|-----------0--5/7\5-------||

Verse
|--------------------------|----------------------|-------------------------|
|--------------------------|----------------------|-------------------------|
|*-------------------------|----------------------|-------------------------|
|*-------------------------|----------------------|-------------------------|
|--------------------------|----------------------|-------------------------|
|---0--0--2--5--2--0--2----|-0--0--2--5--2--0--2--|--0--0--2--5--2--0--2----|

                               3x  Chorus:
---------------------------------||---------------------------|
---------------------------------||---------------------------|
--------------------------------*||---------------------------|
--------------------------------*||---------------------------|
--------4p-3--------3p-2---------||--2/3----2-----2--------4--|
--0--0--------0--0--------5p-3---||------------5-----5--3--2--|

-------------------------|---------------------------|-------------------------|
-------------------------|---------------------------|-------------------------|
-------------------------|---------------------------|-------------------------|
-------------------------|---------------------------|-------------------------|
----------2--3--2-----2--|--2/3----2-----2--------4--|----4--4--4--4--4--4--4--|
----2--5-----------5-----|------------5-----5--3--2--|----2--2--2--2--2--2--2--|

---------------------------|-------------------------|
---------------------------|-------------------------|
---------------------------|-------------------------|
---------------------------|-------------------------|
--2/3----2-----2--------4--|----------2--3--2-----2--|
------------5-----5--3--2--|----2--5-----------5-----|

                                  End Chorus
--------------------------------------------||
--------------------------------------------||
--------------------------------------------||
--------------------------------------------||
--2/3----2-----2--------4----------4--------||
------------5-----5--3--2----------2--------||